Oops, an error
Loading. Please wait.
We have an official Kimdracula tab made by UG professional guitarists. Check out the tab »
×
2,153 views 1 this week
2 commentsread comments
1 2 3 4 5
1 last vote to show rating
add to favorites
×
Save as Personal and add changes to this tab that will be seen only by you. Learn more ›
×
You can save this tab as Personal to edit and correct it or add notes. All changes will be seen only by you. Learn more »
launch autoscroll
font size
0
reset
guitar tuner
edit
Autoscroll
slow
fast
+/-
esc
set tempo
stop
Author
-------------------------------------------------------------------------------
			     Kimdracula - DEFTONES
-------------------------------------------------------------------------------
Tabbed by: Asher Grey
Email: ashergrey@gmail.com

Tuning: C# F# B E (low to high)

Note: to figure out the timing please, listen to the song carefully


  =intro= - no bass

  =verse 1=

"The Earth
 will see
 our lives"
E|-----------------------------------------|
B|-----------------------------------------| (3x)
F#|--------------------7------7------------|
C#|----0-0---0--0--0-3----0-3--------------|

"Go blank"
E|-----------------------------------------|
B|-----------------------------------------|
F#|----------------------------------------|
C#|-----5-5---5--5---8-8-8-8-8-3-3---------|

"Tonight"
E|-----------------------------------------|
B|-----------------------------------------|
F#|----------------------------------------|
C#|---3-5-5---5--5---3-3-3-8-8-7-7---------|

"The Earth
 will rot
 away"
E|-----------------------------------------|
B|-----------------------------------------| (3x)
F#|--------------------7------7------------|
C#|----0-0---0--0--0-3----0-3--------------|

"Go blink"
E|-----------------------------------------|
B|-----------------------------------------|
F#|----------------------------------------|
C#|-----5-5---5--5---8-8-8-8-8-3-3---------|

"Your eyes"
E|-----------------------------------------|
B|-----------------------------------------|
F#|----------------------------------------|
C#|---3-5-5---5--5---3-3-3-8-8-7-7---------|

  =chorus 1=

"I, I really..."
E|---------------------------------------------------|
B|---------------------------------------------------|
F#|--------------------------------------------------|
C#|--13-13-13-13-13-13-13-13-10-10-10-10-10-10-10-10-|

"...wish these snakes were your..."
E|---------------------------------------------------|
B|---------------------------------------------------|
F#|--------------------------------------------------|
C#|--12-12-12-12-12-12-12-12-12-12-12-12-12-12-12-12-|

"...arms"
E|---------------------------------------------------|
B|---------------------------------------------------|
F#|--------------------------------------------------|
C#|--5--5--5--5--5--5--5--5--5--5--5--5--5--5--5--5--|

E|---------------------------------------------------|
B|---------------------------------------------------|
F#|--------------------------------------------------|
C#|--12-12-12-12-12-12-12-12-12-12-12-12-12-12-12-12-|

"I really..."
E|---------------------------------------------------|
B|---------------------------------------------------|
F#|--------------------------------------------------|
C#|--13-13-13-13-13-13-13-13-13-13-13-13-13-13-13-13-|

"...wish you'd make up your..."
E|---------------------------------------------------|
B|---------------------------------------------------|
F#|--------------------------------------------------|
C#|--12-12-12-12-12-12-12-12-12-12-12-12-12-12-12-12-|

"...mind"
E|---------------------------------------------------|
B|---------------------------------------------------|
F#|--------------------------------------------------|
C#|--15-15-15-15-15-15-15-15-13-13-13-13-13-13-13\---|

  =verse 2 = - same as verse 1

"The Earth
 disguised
 away
 don't blink
 tonight"

"The Earth
 will see
 our eyes
 go blank"
 tonight"

  =chorus 2= - same as chorus 1

  =bridge=

"No"
E|-------------------------------------------------|
B|-------------------------------------------------|
F#|--1/3-3-3---3---3-3/6-6-6---6---6---------------|  (2X)
C#|------------------------------------------------|

"No"
E|-------------------------------------------------|
B|-------------------------------------------------|
F#|--1/3-3-3-3-3-3-3-3/6-6-6-6-6-6-6---------------|  (3X)
C#|------------------------------------------------|

E|-------------------------------------------------|
B|-------------------------------------------------|
F#|--1/3-3-3-3-3-3-3-3/6-6-6-6-6-------------------|  (1X)
C#|------------------------------------------------|

  =breakdown= - no bass

  =chorus 3= - same as chorus 1

  =outro=

E|-------------------------------------------------|
B|-------------------------------------------------|
F#|--1/3-3-3---3---3-3/6-6-6---6---6---------------|  (2X)
C#|------------------------------------------------|

E|-------------------------------------------------|
B|-------------------------------------------------|
F#|--1/3-3-3-3-3-3-3-3/6-6-6-6-6-6-6---------------|  (1X)
C#|------------------------------------------------|

E|-------------------------------------------------|
B|-------------------------------------------------|
F#|--1/3-3-3-3-3-3-3-3/6-6-6-6-6-------------------|  (2X)
C#|------------------------------------------------|


/well... this is it!


| /  slide up
| \  slide down
| h  hammer-on
| p  pull-off
| ~  vibrato
| +  harmonic
| x  Mute note
===============================================================================

            
            
Suggest correction
Creating personal tab
Creating personal tab
You can edit any tab online and save it as your Personal.

You can edit, replace or remove any tab part or add personal notes – all changes will be seen only by you.

Personal tabs can be accessed anytime from any device, even offline.
Learn more »
Give kudos to tab author, rate the tab!
1 2 3 4 5
comments
print report bad tab
2 comments total.
0 reply
maxpowweer 639 Jun 04, 2011 02:49 PM

Good tab, however I have found a strikingly similar tab here http://www.songsterr.com/a/wsa/deftones-kimdracula-bass-tab-s33036t2

0 reply
maxpowweer 639 Aug 03, 2012 05:01 PM

This is near enough dead on, however, I dont think it needs to be C# F# B E, instead make it C# G# C# F#, and move the 7 in the verses on the 3rd string, to the 5th fret. It will also mean that the bridge works

guest
You may want to rate the tab now too:
select rating
Wanna post a correction for this tab? Suggest correction