Oops, an error
Loading. Please wait.

Lmirl tab

version 1
version 1

Whole song

Interactive

1,192 views 9 this week
2 commentsread comments
1 2 3 4 5
2 more votes to show rating
add to favorites
×
Save as Personal and add changes to this tab that will be seen only by you. Learn more ›
×
You can save this tab as Personal to edit and correct it or add notes. All changes will be seen only by you. Learn more »
launch autoscroll
font size
0
reset
how to read this tab
guitar tuner
edit
Autoscroll
slow
fast
+/-
esc
set tempo
stop
Author
TUNING: Drop C (with a low A#)

A# G C F A D


[Intro]

(0:22)

(Clean (Reverb/Chorus/Slight Delay) )
D |---------------------|                  D |---------------------|    
A |---------------------|                  A |---------------------|
F |---------------------|                  F |---------------------|
C |-7---4-----2---4-----|                  C |-7---4---------------|
G |-5---2-----0---2-----|       x3         G |-5---2---------------|       (4th time)
A#|---------------------|                  A#|---------------------|


[Verse 1]

(0:51)

D |---------------------------------|
A |---------------------------------|
F |-------------------4-------------|
C |-5p4-----4---4-7-------4---5p4---|
G |-------------------------------7-|         x8
A#|-0-----0---0-----0---0---0-------|

D |---------------------------------|
A |---------------------------------|
F |---------------------------------|
C |-7---------------6---------------|
G |-5---------------4---------------|         
A#|---------------------------------|

D |---------------------------------|
A |---------------------------------|
F |-------------------4-------------|
C |-5p4-----4---4-7-------4---5p4---|
G |-------------------------------7-|         x4
A#|-0-----0---0-----0---0---0-------|

D |---------------------------------|
A |---------------------------------|
F |---------------------------------|
C |-7---------------6---------------|
G |-5---------------4---------------|         x2  
A#|---------------------------------|


[Pre-Chorus]

(1:53)

D |-----------------------------------------------------------------|
A |-5-5-5-5-5-5-5-5-5-5-5-5-5-5-5-5-5-5-5-5-5-5-5-5-5-5-5-5-5-------|
F |-----------------------------------------------------------6-6-6-|
C |-----------------------------------------------------------------|
G |-----------------------------------------------------------------|         
A#|-----------------------------------------------------------------|
                                                                                x2
D |-4-4-4-4-4-4-4-4-4-4-4-4-4-4-4-4-4-4-4-4-4-4-4-4-4-4-4-4-4-4-4-4-|
A |-----------------------------------------------------------------|
F |-----------------------------------------------------------------|
C |-----------------------------------------------------------------|
G |-----------------------------------------------------------------|         
A#|-----------------------------------------------------------------|


[Chorus]

(2:20)

(Guitar 1)
D |-----------------------------------------------------------------|
A |-----------------------------------------------------------------|
F |-7---7---7---7---7---7---7---7---7---7---7---7---7---7---7---7---|
C |-7---7---7---7---7---7---7---7---7---7---7---7---7---7---7---7---|
G |-5---5---5---5---5---5---5---5---5---5---5---5---5---5---5---5---|
A#|-----------------------------------------------------------------|

(Guitar 2)
D |-9-9-9-7-7-7---------------------9-9-9-7-7-7---------------------|
A |-------------7-7-7---------------------------7-7-7---------------|
F |-------------------9-9-9-9-9-9-9-------------------9-9-9-9-9-9-9-|
C |-----------------------------------------------------------------|
G |-----------------------------------------------------------------|
A#|-----------------------------------------------------------------|

(Guitar 1)
D |-----------------------------------------------------------------|
A |-----------------------------------------------------------------|
F |-9---9---9---9---9---9---9---9---9---9---9---9---9---9---9---9---|
C |-9---9---9---9---9---9---9---9---9---9---9---9---9---9---9---9---|
G |-7---7---7---7---7---7---7---7---7---7---7---7---7---7---7---7---|
A#|-----------------------------------------------------------------|

(Guitar 2)
D |-----------------------------------------------------------------|
A |-------7-7-7-9-9-9-9-9-9-9-9-9-9-------7-7-7-9-9-9-9-9-9-9-9-9-9-|
F |-9-9-9---------------------------9-9-9---------------------------|
C |-----------------------------------------------------------------|
G |-----------------------------------------------------------------|
A#|-----------------------------------------------------------------|

(Guitar 1)
D |-----------------------------------------------------------------|
A |-----------------------------------------------------------------|
F |-7---7---7---7---7---7---7---7---7---7---7---7---7---7---7---7---|
C |-7---7---7---7---7---7---7---7---7---7---7---7---7---7---7---7---|
G |-5---5---5---5---5---5---5---5---5---5---5---5---5---5---5---5---|
A#|-----------------------------------------------------------------|

(Guitar 2)
D |-9-9-9-7-7-7---------------------9-9-9-7-7-7---------------------|
A |-------------7-7-7---------------------------7-7-7---------------|
F |-------------------9-9-9-9-9-9-9-------------------9-9-9-9-9-9-9-|
C |-----------------------------------------------------------------|
G |-----------------------------------------------------------------|
A#|-----------------------------------------------------------------|


[Pre-Chorus]

(2:40)

D |-----------------------------------------------------------------|
A |-5-5-5-5-5-5-5-5-5-5-5-5-5-5-5-5-5-5-5-5-5-5-5-5-5-5-5-5-5-------|
F |-----------------------------------------------------------6-6-6-|
C |-----------------------------------------------------------------|
G |-----------------------------------------------------------------|         
A#|-----------------------------------------------------------------|
                                                                                x2
D |-4-4-4-4-4-4-4-4-4-4-4-4-4-4-4-4-4-4-4-4-4-4-4-4-4-4-4-4-4-4-4-4-|
A |-----------------------------------------------------------------|
F |-----------------------------------------------------------------|
C |-----------------------------------------------------------------|
G |-----------------------------------------------------------------|         
A#|-----------------------------------------------------------------|


[Chorus]

(3:08)

(Guitar 1)
D |-----------------------------------------------------------------|
A |-----------------------------------------------------------------|
F |-7---7---7---7---7---7---7---7---7---7---7---7---7---7---7---7---|
C |-7---7---7---7---7---7---7---7---7---7---7---7---7---7---7---7---|
G |-5---5---5---5---5---5---5---5---5---5---5---5---5---5---5---5---|
A#|-----------------------------------------------------------------|

(Guitar 2)
D |-9-9-9-7-7-7---------------------9-9-9-7-7-7---------------------|
A |-------------7-7-7---------------------------7-7-7---------------|
F |-------------------9-9-9-9-9-9-9-------------------9-9-9-9-9-9-9-|
C |-----------------------------------------------------------------|
G |-----------------------------------------------------------------|
A#|-----------------------------------------------------------------|

(Guitar 1)
D |-----------------------------------------------------------------|
A |-----------------------------------------------------------------|
F |-9---9---9---9---9---9---9---9---9---9---9---9---9---9---9---9---|
C |-9---9---9---9---9---9---9---9---9---9---9---9---9---9---9---9---|
G |-7---7---7---7---7---7---7---7---7---7---7---7---7---7---7---7---|
A#|-----------------------------------------------------------------|

(Guitar 2)
D |-----------------------------------------------------------------|
A |-------7-7-7-9-9-9-9-9-9-9-9-9-9-------7-7-7-9-9-9-9-9-9-9-9-9-9-|
F |-9-9-9---------------------------9-9-9---------------------------|
C |-----------------------------------------------------------------|
G |-----------------------------------------------------------------|
A#|-----------------------------------------------------------------|

(Guitar 1)
D |-----------------------------------------------------------------|
A |-----------------------------------------------------------------|
F |-7---7---7---7---7---7---7---7---7---7---7---7---7---7---7---7---|
C |-7---7---7---7---7---7---7---7---7---7---7---7---7---7---7---7---|
G |-5---5---5---5---5---5---5---5---5---5---5---5---5---5---5---5---|
A#|-----------------------------------------------------------------|

(Guitar 2)
D |-9-9-9-7-7-7---------------------9-9-9-7-7-7---------------------|
A |-------------7-7-7---------------------------7-7-7---------------|
F |-------------------9-9-9-9-9-9-9-------------------9-9-9-9-9-9-9-|
C |-----------------------------------------------------------------|
G |-----------------------------------------------------------------|
A#|-----------------------------------------------------------------|

(Guitar 1)
D |-----------------------------------------------------------------|
A |-----------------------------------------------------------------|
F |-9---9---9---9---9---9---9---9---9---9---9---9---9---9---9---9---|
C |-9---9---9---9---9---9---9---9---9---9---9---9---9---9---9---9---|
G |-7---7---7---7---7---7---7---7---7---7---7---7---7---7---7---7---|
A#|-----------------------------------------------------------------|

(Guitar 2)
D |-----------------------------------------------------------------|
A |-------7-7-7-9-9-9-9-9-9-9-9-9-9-------7-7-7-9-9-9-9-9-9-9-9-9-9-|
F |-9-9-9---------------------------9-9-9---------------------------|
C |-----------------------------------------------------------------|
G |-----------------------------------------------------------------|
A#|-----------------------------------------------------------------|


[Bridge]

(3:49)

D |-----------------------------------------------------------------------|
A |-5---9---5---5-5-5-5-5-5-5-5-5-5-5-5-5-9-9-9-9-9-9-9-9-9-9-9-9-9-9-9-9-|
F |-----------------------------------------------------------------------|
C |-----------------------------------------------------------------------|
G |-----------------------------------------------------------------------|
A#|-----------------------------------------------------------------------|

(3:56)

D |-------------------------------------------|
A |-------------------------------------------|
F |-------------------------------------------|
C |-------------------------------------------|
G |-------------------------------------------|         x3         
A#|-4---7---6---6-6-6-6-6-6-6-6-6-6-6-6-6-6-6-|

D |-------------------------------------------|
A |-------------------------------------------|
F |-----------------------9-9-9-7-7-7-7-5-5-5-|
C |-----------------------X-X-X-X-X-X-X-X-X-X-|
G |-----------------------7-7-7-5-5-5-5-4-4-4-|         x4
A#|-4---7---2---2-2-2-2-2---------------------|


[Outro]

(4:38)

D |---------------------|
A |---------------------|
F |---------------------|
C |---------------------|
G |---------------------|          x4
A#|-4---7---6---4---7-6-|

D |---------------------|
A |---------------------|
F |-8-------------------|
C |-8-------------------|
G |-6-------------------|          
A#|---------------------|


************************************
| x   Dead note
| p   Pull-off
************************************

            
            
Suggest correction
Creating personal tab
Creating personal tab
You can edit any tab online and save it as your Personal.

You can edit, replace or remove any tab part or add personal notes – all changes will be seen only by you.

Personal tabs can be accessed anytime from any device, even offline.
Learn more »
Give kudos to tab author, rate the tab!
1 2 3 4 5
comments
print report bad tab
2 comments total.
0 reply
Schurman 100 Apr 28, 2016 11:57 AM, edited at 04:00 pm

Most of the tab is the wrong notes. The intro is the wrong notes, and the verse is close. Good try though

guest
You may want to rate the tab now too:
select rating
Wanna post a correction for this tab? Suggest correction