Oops, an error
Loading. Please wait.

Lotion Tab

version 1
version 1

Whole song

Interactive

5,403 views 1 this week
2 commentsread comments
1 2 3 4 5
2 more votes to show rating
add to favorites
launch autoscroll
font size
0
reset
how to read this tab
guitar tuner
Autoscroll
slow
fast
+/-
esc
set tempo
stop
Help us to improve Ultimate-Guitar.com Take our survey!
×
Author
The main riff goes like this pm=palm mute

|------------------0-0-0-0---
|------------------3-3-3-3---
|------------------0-0-0-0---
|pm022202220222022-----------
|pm022202220222022-----------
|pm022202220222022-----------

              Chorus
 "Its classical "
|--------------------------
|---------------------------
|---------------------------
|7-7-7-7-7-7 0 8-8-8-8-8-8-0
|7-7-7-7-7-7 0 8-8-8-8-8-8-0
|7-7-7-7-7-7 0 8-8-8-8-8-8-0

          Bridge
"And i feel sick"            
|---------------------------
|---------------------------
|---------------------------
|pm0222022202223222---------
|pm0222022202223222---------
|pm0222022202223222---------

Suggest correction
Give kudos to tab author, rate the tab!
1 2 3 4 5
comments
print report bad tab
2 comments total.
0 reply
Aaron gitwizz 0 Feb 22, 2002 12:00 AM

not the best tab...

0 reply
Charlie Rourke 16 Mar 05, 2007 10:30 AM

well the beginning actually goes like this...

D-0--------------
A-4--------------
F(0)------------- the 0 is in parenthesis cuz im not sure about it
C----------------
G----------------
C----------------

guest
You may want to rate the tab now too:
select rating
Wanna post a correction for this tab? Suggest correction