Oops, an error
Loading. Please wait.

Mein bass

version 1
version 1

Whole song

Interactive

2,394 views 1 this week
1 commentread comment
1 2 3 4 5
2 more votes to show rating
add to favorites
×
Save as Personal and add changes to this tab that will be seen only by you. Learn more ›
×
You can save this tab as Personal to edit and correct it or add notes. All changes will be seen only by you. Learn more »
launch autoscroll
font size
0
reset
guitar tuner
edit
Autoscroll
slow
fast
+/-
esc
set tempo
stop
Author
Artist- deftones             
Song- mein (feat serj tankian)    
Album- Saturday night wrist
Tab by ROCKERO ANARQUICO (rockero_anarquico@hotmail.com)

Tablature legend
()-ghost note
/n = bend to number (n) 
 ^ = 1/2 bend or pre-bend

Intro 
Gb|---------------------------------|
Db|---------------------------------|
Ab|-55555555555555-3333333333333333-| 
Eb|---------------------------------|
 

verse
-----------------------------------------

You can do this
Gb|--------------------------------|
Db|-22222222-0000000-4444444444444-|
Ab|--------------------------------| 
Eb|--------------------------------|

Or this
Gb|--------------------------------|
Db|--------------------------------|
Ab|-77777777-5555555-9999999999999-| 
Eb|--------------------------------|

----------------------------------------

chorus  
Gb|-------------------------|
Db|-222220--3-3-3-3-3-3-3-3-|
Ab|-------------------------| 
Eb|-------------------------|

Gb|-------------------------|
Db|-222220--3---------------|
Ab|-----------5~~~~~~~~~~~~-| 
Eb|-------------------------|


Interlude
--------------------------------------------
I`m not segure for this
You can do this
Gb|----------------------------------------|
Db|-333--333--444--444--777--777--777--7-7-|
Ab|----2----2----3----3----5----5----5--5--| 
Eb|----------------------------------------|

Or this 
Gb|----------------------------------------|
Db|-333--333--444--444--999--999--999--9-9-|
Ab|----2----2----3----3----7----7----5—-5--| 
Eb|----------------------------------------|
--------------------------------------------

interlude´s end
Gb|--------------------|
Db|-333--333--444--444-|
Ab|----2----2----3-----| 
Eb|--------------------|



Bridge  
Gb|-------------------------------------------------------------|
Db|-------------------------------------------------------------|
Ab|-555-5-555-5-555-5-555-5-555-5-555-5-555-5-555-5-555-5-555-5-| 
Eb|-------------------------------------------------------------|

Outro1
Gb|----------|
Db|------777-|
Ab|-5~~~~----| 
Eb|----------|

Outro2
Gb|---------------|
Db|-----------777-|
Ab|-5~(5)-(5)-----| 
Eb|---------------|



Structure
Intro x2
Verso x4
Chorus x2
Verso x4
Chorus x2
Interlude (serj sing)x3
Interlude´s end x1 
Verso x3
Bridge x1
Outro1 x1
Outro2 x1
Outro1 x5
Outro2 x1

            
            
Suggest correction
Creating personal tab
Creating personal tab
You can edit any tab online and save it as your Personal.

You can edit, replace or remove any tab part or add personal notes – all changes will be seen only by you.

Personal tabs can be accessed anytime from any device, even offline.
Learn more »
Give kudos to tab author, rate the tab!
1 2 3 4 5
comments
print report bad tab
1 comment total.
0 reply
SuburbanBassist 31 Sep 19, 2014 03:53 PM

Lack of accuracy. Deftones started playing their songs in drop C tuning entirely after the release of White Pony. No other albums besides Adrenaline and Around the Fur where played in drop C.

guest
You may want to rate the tab now too:
select rating
Wanna post a correction for this tab? Suggest correction