Oops, an error
Loading. Please wait.

Mein Bass Tab

version 2
version 2

Whole song

Interactive

458 views 1 this week
no commentswrite comment
1 2 3 4 5
3 more votes to show rating
add to favorites
launch autoscroll
font size
0
reset
guitar tuner
Autoscroll
slow
fast
+/-
esc
set tempo
stop
Help us to improve Ultimate-Guitar.com Take our survey!
×
Author
Difficulty
novice
* Awesome Drum Intro*
Opening "Riff"
E------------------------------------------------------------------------|
A--5-55-555-5-55-555--5-55-555---/--1-11-111-1-11-111--------------------|
D------------------------------------------------------------------------|
G------------------------------------------------------------------------| x2

Verses
E------------------------------------------------------------------------|
A--8-888-88-888--/3-333-33-333-/1-111-11-111-----------------------------|
D------------------------------------------------------------------------|
G------------------------------------------------------------------------| x4
Yes, those are two separate 1's, not the number eleven.

Chorus
E-------------------------------------------------------------------------|
A-2-222-1-----/8-888-8-888-8-888-8-888-------2-222-1--/8----/5*-----------|
D-------------------------------------------------------------------------|
G-------------------------------------------------------------------------| x2

Verse again
Chorus again

Then the interlude with Serj:
E--------------------------------------------------------------------------|
A---4--4------4--4-----5--5-----5--5-----7--7----7--7----------------------|
D--------6---------6--------7--------7--------9-------9--------------------|
G--------------------------------------------------------------------------|

THATS PRETTY MUCH IT
Suggest correction
Give kudos to tab author, rate the tab!
1 2 3 4 5
comments
print report bad tab
guest
You may want to rate the tab now too:
select rating
Wanna post a correction for this tab? Suggest correction