Oops, an error
Loading. Please wait.

Mein tab

version 2
version 2

Whole song

Interactive

3,617 views 1 this week
1 commentread comment
1 2 3 4 5
1 last vote to show rating
add to favorites
×
Save as Personal and add changes to this tab that will be seen only by you. Learn more ›
×
You can save this tab as Personal to edit and correct it or add notes. All changes will be seen only by you. Learn more »
launch autoscroll
font size
0
reset
how to read this tab
guitar tuner
edit
Autoscroll
slow
fast
+/-
esc
set tempo
stop
Author
-------------------------------------------------------------------------------
                             Mein - Deftones
-------------------------------------------------------------------------------
Tabbed by:Mblkh2o
Email:mannyblackwater@yahoo.com

Probably like one of the best songs on the new album,hell yeah its the new single 
doesn't matter if its not single material its still a badass song. F**k yeah.

Tuning:G#,C#,F#,B,E,G#,C# by Cross

   Intro
C#|------------------------------------------------------|
G#|------------------------------------------------------|
E |--10-10-10-10-10-10-10-10-11-11-11-11-11-11-11-11-----|
B |---x--x--x--x--x--x--x--x--x--x--x--x--x--x--x--x-----| 2X
F#|---9--9--9--9--9--9--9--9--9--9--9--9--9--9--9--9-----|
C#|--------------------------10-10-10-10-10-10-10-10-----| 
G#|------------------------------------------------------|
   
   Verse
C#|--------------------------------------------------------------|
G#|--------------------------------------------------------------|
E |-13-13-13-13-13-13-13-13-8-8-8-8-8-8-8-8-7-7-7-7-7-7-7-7-7-7--|
B |--x--x--x--x--x--x--x--x-x-x-x-x-x-x-x-x-x-x-x-x-x-x-x-x-x-x--|  4X
F#|-12-12-12-12-12-12-12-12-7-7-7-7-7-7-7-7-5-5-5-5-5-5-5-5-5-5--|
C#|-----------------------------------------6-6-6-6-6-6-6-6-6-6--|
G#|--------------------------------------------------------------|

   Chorus
C#|---------------------------------------------------------------------------|
G#|---------------------------------------------------------------------------|
E |--10-10-10-10-10-10-10-10-10-10-10-10-10-10-10-10-10-10-10-10-10-10-10-10--|
B |--10-10-10-10-10-10-10-10-10-10-10-10-10-10-10-10-10-10-10-10-10-10-10-10--|
F#|---------------------------------------------------------------------------|
C#|--11-11-11-11-11-11-11-11-11-11-11-11-11-11-11-11-11-11-11-11-11-11-11-11--|
G#|---------------------------------------------------------------------------|

C#|---------------------------------------------------------|
G#|---------------------------------------------------------|
E |--9-------------4-4-4-4-4-4-4-4-4-4-4-4-4-4--9--9--9-----|do the last 4
B |--9----9---9----4-4-4-4-4-4-4-4-4-4-4-4-4-4--9--9--9--9--|<--------chords
F#|-------0---0------------------------------------------0--|on every chorus
C#|-10-------------0-0-0-0-0-0-0-0-0-0-0-0-0-0-10-10-10-----|
G#|-------7---7------------------------------------------7--|

C#|---------------------------------------------------------------------------|
G#|---------------------------------------------------------------------------|
E |--10-10-10-10-10-10-10-10-10-10-10-10-10-10-10-10-10-10-10-10-10-10-10-10--|
B |--10-10-10-10-10-10-10-10-10-10-10-10-10-10-10-10-10-10-10-10-10-10-10-10--|
F#|---------------------------------------------------------------------------|
C#|--11-11-11-11-11-11-11-11-11-11-11-11-11-11-11-11-11-11-11-11-11-11-11-11--|
G#|---------------------------------------------------------------------------|

C#|---------------------------------------------------------|
G#|---------------------------------------------------------|
E |--9------------1-1-1-1-1-1-1-1-1-1-1-1-1-1---9--9--9-----|
B |--9-----9------1-1-1-1-1-1-1-1-1-1-1-1-1-1---9--9--9-9---|
F#|--------0--------------------------------------------0---|
C#|-10------------2-2-2-2-2-2-2-2-2-2-2-2-2-2--10-10-10-----|
G#|--------7--------------------------------------------7---|

   Verse
C#|--------------------------------------------------------------|
G#|--------------------------------------------------------------|
E |-13-13-13-13-13-13-13-13-8-8-8-8-8-8-8-8-7-7-7-7-7-7-7-7-7-7--|
B |--x--x--x--x--x--x--x--x-x-x-x-x-x-x-x-x-x-x-x-x-x-x-x-x-x-x--|  4X
F#|-12-12-12-12-12-12-12-12-7-7-7-7-7-7-7-7-5-5-5-5-5-5-5-5-5-5--|
C#|-----------------------------------------6-6-6-6-6-6-6-6-6-6--|
G#|--------------------------------------------------------------|

   Chorus
C#|---------------------------------------------------------------------------|
G#|---------------------------------------------------------------------------|
E |--10-10-10-10-10-10-10-10-10-10-10-10-10-10-10-10-10-10-10-10-10-10-10-10--|
B |--10-10-10-10-10-10-10-10-10-10-10-10-10-10-10-10-10-10-10-10-10-10-10-10--|
F#|---------------------------------------------------------------------------|
C#|--11-11-11-11-11-11-11-11-11-11-11-11-11-11-11-11-11-11-11-11-11-11-11-11--|
G#|---------------------------------------------------------------------------|

C#|---------------------------------------------|
G#|---------------------------------------------|
E |--9-------------4-4-4-4-4-4-4-4-4-4-4-4-4-4--|
B |--9----9---9----4-4-4-4-4-4-4-4-4-4-4-4-4-4--|
F#|-------0---0---------------------------------|
C#|-10-------------0-0-0-0-0-0-0-0-0-0-0-0-0-0--|
G#|-------7---7---------------------------------|

C#|---------------------------------------------------------------------------|
G#|---------------------------------------------------------------------------|
E |--10-10-10-10-10-10-10-10-10-10-10-10-10-10-10-10-10-10-10-10-10-10-10-10--|
B |--10-10-10-10-10-10-10-10-10-10-10-10-10-10-10-10-10-10-10-10-10-10-10-10--|
F#|---------------------------------------------------------------------------|
C#|--11-11-11-11-11-11-11-11-11-11-11-11-11-11-11-11-11-11-11-11-11-11-11-11--|
G#|---------------------------------------------------------------------------|

C#|-------------------------------------------|
G#|-------------------------------------------|
E |--9------------1-1-1-1-1-1-1-1-1-1-1-1-1-1-|
B |--9-----9------1-1-1-1-1-1-1-1-1-1-1-1-1-1-|
F#|--------0----------------------------------|
C#|-10------------2-2-2-2-2-2-2-2-2-2-2-2-2-2-|
G#|--------7----------------------------------|

   Bridge
C#|---------------------------------------------------------------------------|   \
G#|---------------------------------------------------------------------------|    \
E |---8-8-8-8-8-8-8-------4-4-4-4-4-4---5-5-5-5-5-5-5-5-5-5-5-5-5-5-5-5-5-5-5-|     \
B |---8-8-8-8-8-8-8---9---4-4-4-4-4-4-----------------------------------------|     |
F#|-------------------0---0-0-0-0-0-0-----------------------------------------|     |
C#|---9-9-9-9-9-9-9---------------------6-6-6-6-6-6-6-6-6-6-6-6-6-6-6-6-6-6-6-|     |
G#|-------------------7-----------------6-6-6-6-6-6-6-6-6-6-6-6-6-6-6-6-6-6-6-|     |
                                                                                   1 1/2X
C#|---------------------------------------------------------------------------|     |
G#|---------------------------------------------------------------------------|     |
E |---8-8-8-8-8-8-8-------4-4-4-4-4-4---0-0-0-0-0-0-0-0-0-0-0-0-0-0-0-0-0-0-0-|     |
B |---8-8-8-8-8-8-8---9---4-4-4-4-4-4---0-0-0-0-0-0-0-0-0-0-0-0-0-0-0-0-0-0-0-|     |
F#|-------------------0---0-0-0-0-0-0-----------------------------------------|     /
C#|---9-9-9-9-9-9-9---------------------1-1-1-1-1-1-1-1-1-1-1-1-1-1-1-1-1-1-1-|    /
G#|-------------------7-------------------------------------------------------|   /

C#|----------------------------------------|
G#|----------------------------------------|
E |---8-8-8-8-8-8-8-------4-4-4-4-4-4---0--|Play at the end of this 
B |---8-8-8-8-8-8-8---9---4-4-4-4-4-4---0--|riff above 1X.
F#|-------------------0---0-0-0-0-0-0------|
C#|---9-9-9-9-9-9-9---------------------1--|
G#|-------------------7--------------------|

   Chorus
C#|---------------------------------------------------------------------------|
G#|---------------------------------------------------------------------------| 
E |--10-10-10-10-10-10-10-10-10-10-10-10-10-10-10-10-10-10-10-10-10-10-10-10--|  
B |--10-10-10-10-10-10-10-10-10-10-10-10-10-10-10-10-10-10-10-10-10-10-10-10--|   
F#|---------------------------------------------------------------------------|    
C#|--11-11-11-11-11-11-11-11-11-11-11-11-11-11-11-11-11-11-11-11-11-11-11-11--|     
G#|---------------------------------------------------------------------------|
 
C#|---------------------------------------------|                                    
G#|---------------------------------------------|                                    
E |--9-------------4-4-4-4-4-4-4-4-4-4-4-4-4-4--|                                    
B |--9----9---9----4-4-4-4-4-4-4-4-4-4-4-4-4-4--|                                    
F#|-------0---0---------------------------------|                                   
C#|-10-------------0-0-0-0-0-0-0-0-0-0-0-0-0-0--|                                   
G#|-------7---7---------------------------------|

C#|---------------------------------------------------------------------------|
G#|---------------------------------------------------------------------------|
E |--10-10-10-10-10-10-10-10-10-10-10-10-10-10-10-10-10-10-10-10-10-10-10-10--|
B |--10-10-10-10-10-10-10-10-10-10-10-10-10-10-10-10-10-10-10-10-10-10-10-10--|
F#|---------------------------------------------------------------------------|
C#|--11-11-11-11-11-11-11-11-11-11-11-11-11-11-11-11-11-11-11-11-11-11-11-11--|
G#|---------------------------------------------------------------------------|

C#|-------------------------------------------|
G#|-------------------------------------------|
E |--9------------1-1-1-1-1-1-1-1-1-1-1-1-1-1-|
B |--9-----9------1-1-1-1-1-1-1-1-1-1-1-1-1-1-|
F#|--------0----------------------------------|
C#|-10------------2-2-2-2-2-2-2-2-2-2-2-2-2-2-|
G#|--------7----------------------------------|

  Chorus second part
C#|--------------------------------------------------------------------|
G#|--------------------------------------------------------------------|
E |--10-10-10-10-10-10-10-10-10-10-10-10-10-10-10-10-10-10-10-10-10-10-|  
B |--10-10-10-10-10-10-10-10-10-10-10-10-10-10-10-10-10-10-10-10-10-10-|
F#|--------------------------------------------------------------------|  
C#|--11-11-11-11-11-11-11-11-11-11-11-11-11-11-11-11-11-11-11-11-11-11-|  
G#|--------------------------------------------------------------------|

C#|-----------------------------------------------------------------------|
G#|-----------------------------------------------------------------------|
E |--9----------4-4-4-4-4-4-4-4-4-4-4-4-4-4-4-4-4-4-4-4-4-4-4-4-4-4-4-4-4-|
B |--9--9---9---4-4-4-4-4-4-4-4-4-4-4-4-4-4-4-4-4-4-4-4-4-4-4-4-4-4-4-4-4-| 
F#|-----0---0-------------------------------------------------------------| 
C#|-10----------0-0-0-0-0-0-0-0-0-0-0-0-0-0-0-0-0-0-0-0-0-0-0-0-0-0-0-0-0-| 
G#|-----7---7-------------------------------------------------------------|
   

   Outro
C#|---------------------------------|
G#|---------------------------------|
E |---7-----7---7----5--5--5--------|
B |---7-----7---7-------------------| 8X
F#|---0-----0---0-------------------|
C#|------------------6--6--6--------|
G#|---5-----5---5----6--6--6--------|

END


song Structure:

Intro 2X
Verse 4X
Chorus 1X
Verse 4X
Chorus 1X
Bridge 1 1/2x with that riff at top
Chorus 1 1/2x
Chorus 2nd pt.
Outro 8X

PLEASE RATE

| /  slide up
| \  slide down
| h  hammer-on
| p  pull-off
| ~  vibrato
| +  harmonic
| x  Mute note
===============================================================================
Suggest correction
Creating personal tab
Creating personal tab
You can edit any tab online and save it as your Personal.

You can edit, replace or remove any tab part or add personal notes – all changes will be seen only by you.

Personal tabs can be accessed anytime from any device, even offline.
Learn more »
Give kudos to tab author, rate the tab!
1 2 3 4 5
comments
print report bad tab
1 comment total.
0 reply
donnyb373 10 Jun 09, 2007 07:30 AM

actually steph plays this in low f# lol...good tab tho and nice try, i met him last week and asked what the tuning was on the new cd cause i was tryin it in low g on my esp 7 he said wrong buddy its f

guest
You may want to rate the tab now too:
select rating
Wanna post a correction for this tab? Suggest correction