Oops, an error
Loading. Please wait.

Minerva tab

version 7
version 7
6,211 views 3 this week
2 commentsread comments
1 2 3 4 5
2 more votes to show rating
add to favorites
×
Save as Personal and add changes to this tab that will be seen only by you. Learn more ›
×
You can save this tab as Personal to edit and correct it or add notes. All changes will be seen only by you. Learn more »
launch autoscroll
font size
0
reset
how to read this tab
guitar tuner
backing track
0:00
0:00
edit
Autoscroll
slow
fast
+/-
esc
set tempo
stop
Artist: Deftones
Song: Minerva
Album: Deftones
Tabbed by Jose Cruz

This song is played with two guitars chino's regular guitar (Guitar 1)
and Stef's 7-strings guitar (Guitar 2), Basically Stef plays the same
but in a 7-strings guitar.

Tunings half step down Drop D, both guitars

Chino's guitar (Guitar 1)
DbAbDbGbBbEb
| | | | | |
6 5 4 3 2 1 <- Strings

Stef's guitar (Guitar 2)
AbDbAbDbGbBbEb
| | | | | | |
7 6 5 4 3 2 1 <- Strings


Intro (Guitar 1)
Eb----------------------------0-0-0-0--------------------------|
Bb-------------------13131313-13131313-13131313----------------|
Gb----------14141414-14141414----------14141414-14141414-------|
Db-12121212-12121212----------------------------12121212-------|
Ab-0-0-0-0-----------------------------------------------------|
Db-------------------------------------------------------------|
Its something like that....like going up and down through the chord

Verse (Guitar 1)
Eb---------------------------------------------------------------|
Bb-------3--3----------------------------------------------------|
Gb-------2--2---14-----11-11-11b12-11-11-11b12-11-11-11b12-------|
Db--00---0--0---12-----------------------------------------------|
Ab--00---0--0---0------9--9--9b10--9--9--9b10--9--9--9b10--------|
Db--00---0--0---0------0--0--0-----0--0--0-----0--0--0-----------|
b= Bend... if u play the song with 2 guitars Guitar 1 plays without bends

Verse (Guitar 2)
Eb--------------17-----14-14-14b15-14-14-14b15-14-14-14b15---------|
Bb-----------------------------------------------------------------|
Gb--------------14-----11-11-11b12-11-11-11b12-11-11-11b12---------|
Db--77---7--7---0------0--0--0-----0--0--0-----0--0--0-------------|
Ab--55---5--5---0------0--0--0-----0--0--0-----0--0--0-------------|
Eb--55---5--5------------------------------------------------------|
Ab--55---5--5------------------------------------------------------|
b = Bend

Chorus (Guitar 1)
Eb-------------------------------------------------------------|
Bb-------------------------------------------------------------|
Gb------------------4444444444444444---------------------------|
Db-7777777777777777-2222222222222222-0000000000000-------------|
Ab-5555555555555555-2222222222222222-0000000000000-------------|
Db-5555555555555555-2222222222222222-0000000000000-------------|

Im not sure about this part 'cause in all live videos Stef appears for
less than a second, but the few camera shots that i saw he always plays
the chorus part near the 5th fret so i assume that he plays something
like this.

Chorus (Guitar 2)
Eb-------------------------------------------------------------|
Bb-------------------------------------------------------------|
Gb-----------------------------------7777777777777-------------|
Db-555555555555555-55555555555555555---------------------------|
Ab-555555555555555-77777777777777777-5555555555555-------------|
Db-333333333333333-77777777777777777-5555555555555-------------|
Ab-555555555555555-77777777777777777-5555555555555-------------|

if u dont like it u can also play it like this
Eb-------------------------------------------------------------|
Bb-------------------------------------------------------------|
Gb-------------------------------------------------------------|
Db-121212121212121212121212-9999999999999999-7777777777777-----|
Ab-101010101010101010101010-7777777777777777-5555555555555-----|
Db-101010101010101010101010-7777777777777777-5555555555555-----|
Ab-101010101010101010101010-7777777777777777-5555555555555-----|

Deftoens Rocks!

            
            
Suggest correction
Creating personal tab
Creating personal tab
You can edit any tab online and save it as your Personal.

You can edit, replace or remove any tab part or add personal notes – all changes will be seen only by you.

Personal tabs can be accessed anytime from any device, even offline.
Learn more »
Give kudos to tab author, rate the tab!
1 2 3 4 5
comments
print report bad tab
2 comments total.
0 reply
inhumandecency 10 Jan 18, 2007 05:02 AM

Wow your tuning for stephs 7-string is completely wrong and odd. Its G# C# F# B E G# C#

0 reply
andrewjp123 583 Mar 11, 2010 06:24 PM

this is correct

guest
Wanna post a correction for this tab? Suggest correction