Oops, an error
Loading. Please wait.

Minerva tab

version 8
version 8
2,045 views 3 this week
1 commentread comment
1 2 3 4 5
x 5
add to favorites
×
Save as Personal and add changes to this tab that will be seen only by you. Learn more ›
×
You can save this tab as Personal to edit and correct it or add notes. All changes will be seen only by you. Learn more »
launch autoscroll
font size
0
reset
how to read this tab
guitar tuner
backing track
0:00
0:00
edit
Autoscroll
slow
fast
+/-
esc
set tempo
stop
This is a very accurate tab of minerva by the deftones, it is very easy to follow and very easy to play.

band: Deftones
song: Minerva
Album: Deftones
Tuning: drop c:from low to high(C G C F A D)
Tabbed by: Billyof bodom71
if you have any questions about this tab, or have a request for me to submit 
another deftones tab, email me at deftones44330@yahoo.com

/ SLIDE UP
\ SLIDE DOWN
bend b()
NH NATURAL HARMONIC


INTRO GUITAR 1
(notes in the parenthesis are meant to ring, don't play them, let them ring)
[---------------------------------------------------]
[-----------13-13-13-13-13-13-13-13-13-13-13-13-13--]
[-14-14-14--14-14-14-14-14-14-14-14-14-14-14-14-14--]
[-12-12-12--12-12-12-12-12-12-12-12-12-12-12-12-12--]
[---------------------------------------------------]
[---------------------------------------------------]

[------------------------------------------------------------------]
[-----------13-(13)-(13)-(13)-13-(13)-(13)-(13)-13-13-(13)-13-(13)-]
[-14-14-14--14--14---14---14--14--14---14---14--14-14--14--14--14--]
[-12-12-12--12--12---12---12--12--12---12---12--12-12--12--12--12--]
[------------------------------------------------------------------]
[------------------------------------------------------------------]

[---------------------------------------------------]
[-----------13-13-13-13-13-13-13-13-13-13-13-13-13--]
[-14-14-14--14-14-14-14-14-14-14-14-14-14-14-14-14--]
[-12-12-12--12-12-12-12-12-12-12-12-12-12-12-12-12--]
[---------------------------------------------------]
[---------------------------------------------------]

[------------------------------------------------------------------]
[-----------13-(13)-(13)-(13)-13-(13)-(13)-(13)--0--0---0---0---0--]
[-14-14-14--14--14---14---14--14--14---14---14--14-14--14--14--14--]
[-12-12-12--12--12---12---12--12--12---12---12--12-12--12--12--12--]
[------------------------------------------------0--0---0---0---0--]
[------------------------------------------------------------------]

VERSE GUITAR 1
[--------------------------------------------------------------------------]
[--------------------------------------------------------------------------]
[-12-12/14-14-14-14-14-14-14-14-14/11-11-11b(12)-11-11-11-11-11-11b(12)-11-]
[-X--X-/X--X--X--X--X--X--X--X--X-/X--X--X--X----X--X--X--X--X--X-------X--]
[-10-10/12-12-12-12-12-12-12-12-12/9--9--9b(10)--9--9--9--9--9--9b(10)--9--]
[-0--0--0--0--0--0--0--0--0--0--0--0--0----------0--0--0--0--0--0-------0--]
VERSE GUITAR 2
[--------------------------------------------------------------------------]
[-3--3--3--3--3--3--3--3--3--3--3--3--3--3-------3--3--3--3--3--3--3----3--]
[-2--2--2--2--2--2--2--2--2--2--2--2--2--2-------2--2--2--2--2--2--2----2--]
[-0--0--0--0--0--0--0--0--0--0--0--0--0--0-------0--0--0--0--0--0--0----0--]
[-0--0--0--0--0--0--0--0--0--0--0--0--0--0-------0--0--0--0--0--0--0----0--]
[-0--0--0--0--0--0--0--0--0--0--0--0--0--0-------0--0--0--0--0--0--0----0--]

VERSE GUITAR 1
[---------------------------------------------------------------------------]
[---------------------------------------------------------------------------]
[-12-12/14-14-14-14-14-14-14/-18-18/11-11-11b(12)-11-11-11-11-11-11b(12)-11-]
[-X--X-/X--X--X--X--X--X--X-/-X--X-/X--X--X-------X--X--X--X--X--X--X----X--]
[-10-10/12-12-12-12-12-12-12/-16-16/9--9--9b(10)--9--9--9--9--9--9b(10)--9--]
[-0--0--0--0--0--0--0--0--0---0--0--0--0--0-------0--0--0--0--0--0--0----0--]
VERSE GUITAR 2
[---------------------------------------------------------------------------]
[-3--3--3--3--3--3--3--3--3---3--3--3--3--3-------3--3--3--3--3--3--3----3--]
[-2--2--2--2--2--2--2--2--2---2--2--2--2--2-------2--2--2--2--2--2--2----2--]
[-0--0--0--0--0--0--0--0--0---0--0--0--0--0-------0--0--0--0--0--0--0----0--]
[-0--0--0--0--0--0--0--0--0---0--0--0--0--0-------0--0--0--0--0--0--0----0--]
[-0--0--0--0--0--0--0--0--0---0--0--0--0--0-------0--0--0--0--0--0--0----0--]

VERSE GUITAR 1
[--------------------------------------------------------------------------]
[--------------------------------------------------------------------------]
[-12-12/14-14-14-14-14-14-14-14-14/11-11-11b(12)-11-11-11-11-11-11b(12)-11-]
[-X--X-/X--X--X--X--X--X--X--X--X-/X--X--X--X----X--X--X--X--X--X-------X--]
[-10-10/12-12-12-12-12-12-12-12-12/9--9--9b(10)--9--9--9--9--9--9b(10)--9--]
[-0--0--0--0--0--0--0--0--0--0--0--0--0----------0--0--0--0--0--0-------0--]
VERSE GUITAR 2
[--------------------------------------------------------------------------]
[-3--3--3--3--3--3--3--3--3--3--3--3--3--3-------3--3--3--3--3--3--3----3--]
[-2--2--2--2--2--2--2--2--2--2--2--2--2--2-------2--2--2--2--2--2--2----2--]
[-0--0--0--0--0--0--0--0--0--0--0--0--0--0-------0--0--0--0--0--0--0----0--]
[-0--0--0--0--0--0--0--0--0--0--0--0--0--0-------0--0--0--0--0--0--0----0--]
[-0--0--0--0--0--0--0--0--0--0--0--0--0--0-------0--0--0--0--0--0--0----0--]

VERSE GUITAR 1
[---------------------------------------------------------------------------]
[---------------------------------------------------------------------------]
[-12-12/14-14-14-14-14-14-14/-18-18/11-11-11b(12)-11-11-11-11-11-11b(12)-11-]
[-X--X-/X--X--X--X--X--X--X-/-X--X-/X--X--X-------X--X--X--X--X--X--X----X--]
[-10-10/12-12-12-12-12-12-12/-16-16/9--9--9b(10)--9--9--9--9--9--9b(10)--9--]
[-0--0--0--0--0--0--0--0--0---0--0--0--0--0-------0--0--0--0--0--0--0----0--]
VERSE GUITAR 2
[---------------------------------------------------------------------------]
[-3--3--3--3--3--3--3--3--3---3--3--3--3--3-------3--3--3--3--3--3--3----3--]
[-2--2--2--2--2--2--2--2--2---2--2--2--2--2-------2--2--2--2--2--2--2----2--]
[-0--0--0--0--0--0--0--0--0---0--0--0--0--0-------0--0--0--0--0--0--0----0--]
[-0--0--0--0--0--0--0--0--0---0--0--0--0--0-------0--0--0--0--0--0--0----0--]
[-0--0--0--0--0--0--0--0--0---0--0--0--0--0-------0--0--0--0--0--0--0----0--]

VERSE GUITAR 1
[--------------------------------------------------------------------------]
[--------------------------------------------------------------------------]
[-12-12/14-14-14-14-14-14-14-14-14/11-11-11b(12)-11-11-11-11-11-11b(12)-11-]
[-X--X-/X--X--X--X--X--X--X--X--X-/X--X--X--X----X--X--X--X--X--X-------X--]
[-10-10/12-12-12-12-12-12-12-12-12/9--9--9b(10)--9--9--9--9--9--9b(10)--9--]
[-0--0--0--0--0--0--0--0--0--0--0--0--0----------0--0--0--0--0--0-------0--]
VERSE GUITAR 2
[--------------------------------------------------------------------------]
[-3--3--3--3--3--3--3--3--3--3--3--3--3--3-------3--3--3--3--3--3--3----3--]
[-2--2--2--2--2--2--2--2--2--2--2--2--2--2-------2--2--2--2--2--2--2----2--]
[-0--0--0--0--0--0--0--0--0--0--0--0--0--0-------0--0--0--0--0--0--0----0--]
[-0--0--0--0--0--0--0--0--0--0--0--0--0--0-------0--0--0--0--0--0--0----0--]
[-0--0--0--0--0--0--0--0--0--0--0--0--0--0-------0--0--0--0--0--0--0----0--]

VERSE GUITAR 1
[---------------------------------------------------------------------------]
[---------------------------------------------------------------------------]
[-12-12/14-14-14-14-14-14-14/-18-18/11-11-11b(12)-11-11-11-11-11-11b(12)-11-]
[-X--X-/X--X--X--X--X--X--X-/-X--X-/X--X--X-------X--X--X--X--X--X--X----X--]
[-10-10/12-12-12-12-12-12-12/-16-16/9--9--9b(10)--9--9--9--9--9--9b(10)--9--]
[-0--0--0--0--0--0--0--0--0---0--0--0--0--0-------0--0--0--0--0--0--0----0--]
VERSE GUITAR 2
[---------------------------------------------------------------------------]
[-3--3--3--3--3--3--3--3--3---3--3--3--3--3-------3--3--3--3--3--3--3----3--]
[-2--2--2--2--2--2--2--2--2---2--2--2--2--2-------2--2--2--2--2--2--2----2--]
[-0--0--0--0--0--0--0--0--0---0--0--0--0--0-------0--0--0--0--0--0--0----0--]
[-0--0--0--0--0--0--0--0--0---0--0--0--0--0-------0--0--0--0--0--0--0----0--]
[-0--0--0--0--0--0--0--0--0---0--0--0--0--0-------0--0--0--0--0--0--0----0--]

CHORUS GUITAR 1 AND 2
[----------------------------------------------------------------------]
[----------------------------------------------------------------------]
[-7-7-7-7-7-7-7-7-7-7-7-7-7-7-7-7-4-4-4-4-4-4-4-4-4-4-4-4-4-4-4-4------]
[-5-5-5-5-5-5-5-5-5-5-5-5-5-5-5-5-2-2-2-2-2-2-2-2-2-2-2-2-2-2-2-2------]
[-5-5-5-5-5-5-5-5-5-5-5-5-5-5-5-5-2-2-2-2-2-2-2-2-2-2-2-2-2-2-2-2------]
[-5-5-5-5-5-5-5-5-5-5-5-5-5-5-5-5-2-2-2-2-2-2-2-2-2-2-2-2-2-2-2-2------]

BRIDGE GUITAR 1
[------------------------------------------------------------------]
[-----------13-(13)-(13)-(13)-13-(13)-(13)-(13)--0--0---0---0---0--]
[-14-14-14--14--14---14---14--14--14---14---14--14-14--14--14--14--]
[-12-12-12--12--12---12---12--12--12---12---12--12-12--12--12--12--]
[------------------------------------------------0--0---0---0---0--]
[------------------------------------------------------------------]
BRIDGE GUITAR 2
(Hit note on a clean channel and ring throughout the entire bridge)
[------------------------------------------------------------------]
[-3----------------------------------------------------------------]
[-2----------------------------------------------------------------]
[-0----------------------------------------------------------------]
[-0----------------------------------------------------------------]
[-0----------------------------------------------------------------]

VERSE GUITAR 1
[--------------------------------------------------------------------------]
[--------------------------------------------------------------------------]
[-12-12/14-14-14-14-14-14-14-14-14/11-11-11b(12)-11-11-11-11-11-11b(12)-11-]
[-X--X-/X--X--X--X--X--X--X--X--X-/X--X--X--X----X--X--X--X--X--X-------X--]
[-10-10/12-12-12-12-12-12-12-12-12/9--9--9b(10)--9--9--9--9--9--9b(10)--9--]
[-0--0--0--0--0--0--0--0--0--0--0--0--0----------0--0--0--0--0--0-------0--]
VERSE GUITAR 2
[--------------------------------------------------------------------------]
[-3--3--3--3--3--3--3--3--3--3--3--3--3--3-------3--3--3--3--3--3--3----3--]
[-2--2--2--2--2--2--2--2--2--2--2--2--2--2-------2--2--2--2--2--2--2----2--]
[-0--0--0--0--0--0--0--0--0--0--0--0--0--0-------0--0--0--0--0--0--0----0--]
[-0--0--0--0--0--0--0--0--0--0--0--0--0--0-------0--0--0--0--0--0--0----0--]
[-0--0--0--0--0--0--0--0--0--0--0--0--0--0-------0--0--0--0--0--0--0----0--]

VERSE GUITAR 1
[---------------------------------------------------------------------------]
[---------------------------------------------------------------------------]
[-12-12/14-14-14-14-14-14-14/-18-18/11-11-11b(12)-11-11-11-11-11-11b(12)-11-]
[-X--X-/X--X--X--X--X--X--X-/-X--X-/X--X--X-------X--X--X--X--X--X--X----X--]
[-10-10/12-12-12-12-12-12-12/-16-16/9--9--9b(10)--9--9--9--9--9--9b(10)--9--]
[-0--0--0--0--0--0--0--0--0---0--0--0--0--0-------0--0--0--0--0--0--0----0--]
VERSE GUITAR 2
[---------------------------------------------------------------------------]
[-3--3--3--3--3--3--3--3--3---3--3--3--3--3-------3--3--3--3--3--3--3----3--]
[-2--2--2--2--2--2--2--2--2---2--2--2--2--2-------2--2--2--2--2--2--2----2--]
[-0--0--0--0--0--0--0--0--0---0--0--0--0--0-------0--0--0--0--0--0--0----0--]
[-0--0--0--0--0--0--0--0--0---0--0--0--0--0-------0--0--0--0--0--0--0----0--]
[-0--0--0--0--0--0--0--0--0---0--0--0--0--0-------0--0--0--0--0--0--0----0--]

VERSE GUITAR 1
[--------------------------------------------------------------------------]
[--------------------------------------------------------------------------]
[-12-12/14-14-14-14-14-14-14-14-14/11-11-11b(12)-11-11-11-11-11-11b(12)-11-]
[-X--X-/X--X--X--X--X--X--X--X--X-/X--X--X--X----X--X--X--X--X--X-------X--]
[-10-10/12-12-12-12-12-12-12-12-12/9--9--9b(10)--9--9--9--9--9--9b(10)--9--]
[-0--0--0--0--0--0--0--0--0--0--0--0--0----------0--0--0--0--0--0-------0--]
VERSE GUITAR 2
[--------------------------------------------------------------------------]
[-3--3--3--3--3--3--3--3--3--3--3--3--3--3-------3--3--3--3--3--3--3----3--]
[-2--2--2--2--2--2--2--2--2--2--2--2--2--2-------2--2--2--2--2--2--2----2--]
[-0--0--0--0--0--0--0--0--0--0--0--0--0--0-------0--0--0--0--0--0--0----0--]
[-0--0--0--0--0--0--0--0--0--0--0--0--0--0-------0--0--0--0--0--0--0----0--]
[-0--0--0--0--0--0--0--0--0--0--0--0--0--0-------0--0--0--0--0--0--0----0--]

VERSE GUITAR 1
[---------------------------------------------------------------------------]
[---------------------------------------------------------------------------]
[-12-12/14-14-14-14-14-14-14/-18-18/11-11-11b(12)-11-11-11-11-11-11b(12)-11-]
[-X--X-/X--X--X--X--X--X--X-/-X--X-/X--X--X-------X--X--X--X--X--X--X----X--]
[-10-10/12-12-12-12-12-12-12/-16-16/9--9--9b(10)--9--9--9--9--9--9b(10)--9--]
[-0--0--0--0--0--0--0--0--0---0--0--0--0--0-------0--0--0--0--0--0--0----0--]
VERSE GUITAR 2
[---------------------------------------------------------------------------]
[-3--3--3--3--3--3--3--3--3---3--3--3--3--3-------3--3--3--3--3--3--3----3--]
[-2--2--2--2--2--2--2--2--2---2--2--2--2--2-------2--2--2--2--2--2--2----2--]
[-0--0--0--0--0--0--0--0--0---0--0--0--0--0-------0--0--0--0--0--0--0----0--]
[-0--0--0--0--0--0--0--0--0---0--0--0--0--0-------0--0--0--0--0--0--0----0--]
[-0--0--0--0--0--0--0--0--0---0--0--0--0--0-------0--0--0--0--0--0--0----0--]

VERSE GUITAR 1
[--------------------------------------------------------------------------]
[--------------------------------------------------------------------------]
[-12-12/14-14-14-14-14-14-14-14-14/11-11-11b(12)-11-11-11-11-11-11b(12)-11-]
[-X--X-/X--X--X--X--X--X--X--X--X-/X--X--X--X----X--X--X--X--X--X-------X--]
[-10-10/12-12-12-12-12-12-12-12-12/9--9--9b(10)--9--9--9--9--9--9b(10)--9--]
[-0--0--0--0--0--0--0--0--0--0--0--0--0----------0--0--0--0--0--0-------0--]
VERSE GUITAR 2
[--------------------------------------------------------------------------]
[-3--3--3--3--3--3--3--3--3--3--3--3--3--3-------3--3--3--3--3--3--3----3--]
[-2--2--2--2--2--2--2--2--2--2--2--2--2--2-------2--2--2--2--2--2--2----2--]
[-0--0--0--0--0--0--0--0--0--0--0--0--0--0-------0--0--0--0--0--0--0----0--]
[-0--0--0--0--0--0--0--0--0--0--0--0--0--0-------0--0--0--0--0--0--0----0--]
[-0--0--0--0--0--0--0--0--0--0--0--0--0--0-------0--0--0--0--0--0--0----0--]

VERSE GUITAR 1
[---------------------------------------------------------------------------]
[---------------------------------------------------------------------------]
[-12-12/14-14-14-14-14-14-14/-18-18/11-11-11b(12)-11-11-11-11-11-11b(12)-11-]
[-X--X-/X--X--X--X--X--X--X-/-X--X-/X--X--X-------X--X--X--X--X--X--X----X--]
[-10-10/12-12-12-12-12-12-12/-16-16/9--9--9b(10)--9--9--9--9--9--9b(10)--9--]
[-0--0--0--0--0--0--0--0--0---0--0--0--0--0-------0--0--0--0--0--0--0----0--]
VERSE GUITAR 2
[---------------------------------------------------------------------------]
[-3--3--3--3--3--3--3--3--3---3--3--3--3--3-------3--3--3--3--3--3--3----3--]
[-2--2--2--2--2--2--2--2--2---2--2--2--2--2-------2--2--2--2--2--2--2----2--]
[-0--0--0--0--0--0--0--0--0---0--0--0--0--0-------0--0--0--0--0--0--0----0--]
[-0--0--0--0--0--0--0--0--0---0--0--0--0--0-------0--0--0--0--0--0--0----0--]
[-0--0--0--0--0--0--0--0--0---0--0--0--0--0-------0--0--0--0--0--0--0----0--]

CHORUS GUITAR 1 AND 2
[----------------------------------------------------------------------]
[----------------------------------------------------------------------]
[-7-7-7-7-7-7-7-7-7-7-7-7-7-7-7-7-4-4-4-4-4-4-4-4-4-4-4-4-4-4-4-4------]
[-5-5-5-5-5-5-5-5-5-5-5-5-5-5-5-5-2-2-2-2-2-2-2-2-2-2-2-2-2-2-2-2------]
[-5-5-5-5-5-5-5-5-5-5-5-5-5-5-5-5-2-2-2-2-2-2-2-2-2-2-2-2-2-2-2-2------]
[-5-5-5-5-5-5-5-5-5-5-5-5-5-5-5-5-2-2-2-2-2-2-2-2-2-2-2-2-2-2-2-2------]
CHORUS (continued)
[----------------------------------------------------------------------]
[-3-3-3-3-3-3-3-3-3-3-3-3-3-3-3-3-3-3-3-3-3-3-3-3-3-3-3-3-3-3-3-3------]
[-2-2-2-2-2-2-2-2-2-2-2-2-2-2-2-2-2-2-2-2-2-2-2-2-2-2-2-2-2-2-2-2------]
[-0-0-0-0-0-0-0-0-0-0-0-0-0-0-0-0-0-0-0-0-0-0-0-0-0-0-0-0-0-0-0-0------]
[-0-0-0-0-0-0-0-0-0-0-0-0-0-0-0-0-0-0-0-0-0-0-0-0-0-0-0-0-0-0-0-0------]
[-0-0-0-0-0-0-0-0-0-0-0-0-0-0-0-0-0-0-0-0-0-0-0-0-0-0-0-0-0-0-0-0------]
CHORUS (continued)
[----------------------------------------------------------------------]
[----------------------------------------------------------------------]
[-7-7-7-7-7-7-7-7-7-7-7-7-7-7-7-7-4-4-4-4-4-4-4-4-4-4-4-4-4-4-4-4------]
[-5-5-5-5-5-5-5-5-5-5-5-5-5-5-5-5-2-2-2-2-2-2-2-2-2-2-2-2-2-2-2-2------]
[-5-5-5-5-5-5-5-5-5-5-5-5-5-5-5-5-2-2-2-2-2-2-2-2-2-2-2-2-2-2-2-2------]
[-5-5-5-5-5-5-5-5-5-5-5-5-5-5-5-5-2-2-2-2-2-2-2-2-2-2-2-2-2-2-2-2------]
BRIDGE GUITAR 1
[-------------------------------------------------------------------]
[-----------13-(13)-(13)--13-(13)-(13)-13--(13)-13-(13)-13-13-------]
[-14-14-14--14--14---14---14--14---14--14---14--14--14--14----14-14-]
[-12-12-12--12--12---12---12--12---12--12---12--12--12--12----12-12-]
[-------------------------------------------------------------------]
[-------------------------------------------------------------------]
BRIDGE GUITAR 2
(Hit note on a clean channel and ring until harmonic part)
[------------------------------------------------------------------]
[-3----------------------------------------------------------------]
[-2----------------------------------------------------------------]
[-0----------------------------------------------------------------]
[-0----------------------------------------------------------------]
[-0----------------------------------------------------------------]
GUITAR 1
[-------------------------------------------------------------------]
[---13-(13)-(13)--13-(13)-(13)-13--(13)-13-(13)-13-13---------------]
[---14--14---14---14--14---14--14---14--14--14--14----14-14---------]
[---12--12---12---12--12---12--12---12--12--12--12----12-12---------]
[-------------------------------------------------------------------]
[-------------------------------------------------------------------]
GUITAR 1
[-------------------------------------------------------------------]
[---13-(13)-(13)--13-(13)-(13)-13--(13)-13-(13)-13-13---------------]
[---14--14---14---14--14---14--14---14--14--14--14----14-14---------]
[---12--12---12---12--12---12--12---12--12--12--12----12-12---------]
[-------------------------------------------------------------------]
[-------------------------------------------------------------------]
FEEDBACK PART GUITAR 2
(Turn volume knob off, hit the harmonic, then slowly turn the knob back
up to replicate the effect)
[-------------------------------------------------------------------]
[-7-NH------------------5-NH----------------------------------------]
[-------------------------------------------------------------------]
[-------------------------------------------------------------------]
[-------------------------------------------------------------------]
[-------------------------------------------------------------------]
GUITAR 1
[----------------------------------------------------------]
[---13-(13)-(13)-(13)-13-(13)-(13)-(13)--0--0---0---0---0--]
[---14--14---14---14--14--14---14---14--14-14--14--14--14--]
[---12--12---12---12--12--12---12---12--12-12--12--12--12--]
[----------------------------------------0--0---0---0---0--]
[----------------------------------------------------------]

VERSE GUITAR 1
[--------------------------------------------------------------------------]
[--------------------------------------------------------------------------]
[-12-12/14-14-14-14-14-14-14-14-14/11-11-11b(12)-11-11-11-11-11-11b(12)-11-]
[-X--X-/X--X--X--X--X--X--X--X--X-/X--X--X--X----X--X--X--X--X--X-------X--]
[-10-10/12-12-12-12-12-12-12-12-12/9--9--9b(10)--9--9--9--9--9--9b(10)--9--]
[-0--0--0--0--0--0--0--0--0--0--0--0--0----------0--0--0--0--0--0-------0--]
VERSE GUITAR 2
[--------------------------------------------------------------------------]
[-3--3--3--3--3--3--3--3--3--3--3--3--3--3-------3--3--3--3--3--3--3----3--]
[-2--2--2--2--2--2--2--2--2--2--2--2--2--2-------2--2--2--2--2--2--2----2--]
[-0--0--0--0--0--0--0--0--0--0--0--0--0--0-------0--0--0--0--0--0--0----0--]
[-0--0--0--0--0--0--0--0--0--0--0--0--0--0-------0--0--0--0--0--0--0----0--]
[-0--0--0--0--0--0--0--0--0--0--0--0--0--0-------0--0--0--0--0--0--0----0--]

VERSE GUITAR 1
[---------------------------------------------------------------------------]
[---------------------------------------------------------------------------]
[-12-12/14-14-14-14-14-14-14/-18-18/11-11-11b(12)-11-11-11-11-11-11b(12)-11-]
[-X--X-/X--X--X--X--X--X--X-/-X--X-/X--X--X-------X--X--X--X--X--X--X----X--]
[-10-10/12-12-12-12-12-12-12/-16-16/9--9--9b(10)--9--9--9--9--9--9b(10)--9--]
[-0--0--0--0--0--0--0--0--0---0--0--0--0--0-------0--0--0--0--0--0--0----0--]
VERSE GUITAR 2
[---------------------------------------------------------------------------]
[-3--3--3--3--3--3--3--3--3---3--3--3--3--3-------3--3--3--3--3--3--3----3--]
[-2--2--2--2--2--2--2--2--2---2--2--2--2--2-------2--2--2--2--2--2--2----2--]
[-0--0--0--0--0--0--0--0--0---0--0--0--0--0-------0--0--0--0--0--0--0----0--]
[-0--0--0--0--0--0--0--0--0---0--0--0--0--0-------0--0--0--0--0--0--0----0--]
[-0--0--0--0--0--0--0--0--0---0--0--0--0--0-------0--0--0--0--0--0--0----0--]

VERSE GUITAR 1
[--------------------------------------------------------------------------]
[--------------------------------------------------------------------------]
[-12-12/14-14-14-14-14-14-14-14-14/11-11-11b(12)-11-11-11-11-11-11b(12)-11-]
[-X--X-/X--X--X--X--X--X--X--X--X-/X--X--X--X----X--X--X--X--X--X-------X--]
[-10-10/12-12-12-12-12-12-12-12-12/9--9--9b(10)--9--9--9--9--9--9b(10)--9--]
[-0--0--0--0--0--0--0--0--0--0--0--0--0----------0--0--0--0--0--0-------0--]
VERSE GUITAR 2
[--------------------------------------------------------------------------]
[-3--3--3--3--3--3--3--3--3--3--3--3--3--3-------3--3--3--3--3--3--3----3--]
[-2--2--2--2--2--2--2--2--2--2--2--2--2--2-------2--2--2--2--2--2--2----2--]
[-0--0--0--0--0--0--0--0--0--0--0--0--0--0-------0--0--0--0--0--0--0----0--]
[-0--0--0--0--0--0--0--0--0--0--0--0--0--0-------0--0--0--0--0--0--0----0--]
[-0--0--0--0--0--0--0--0--0--0--0--0--0--0-------0--0--0--0--0--0--0----0--]

VERSE GUITAR 1
[---------------------------------------------------------------------------]
[---------------------------------------------------------------------------]
[-12-12/14-14-14-14-14-14-14/-18-18/11-11-11b(12)-11-11-11-11-11-11b(12)-11-]
[-X--X-/X--X--X--X--X--X--X-/-X--X-/X--X--X-------X--X--X--X--X--X--X----X--]
[-10-10/12-12-12-12-12-12-12/-16-16/9--9--9b(10)--9--9--9--9--9--9b(10)--9--]
[-0--0--0--0--0--0--0--0--0---0--0--0--0--0-------0--0--0--0--0--0--0----0--]
VERSE GUITAR 2
[---------------------------------------------------------------------------]
[-3--3--3--3--3--3--3--3--3---3--3--3--3--3-------3--3--3--3--3--3--3----3--]
[-2--2--2--2--2--2--2--2--2---2--2--2--2--2-------2--2--2--2--2--2--2----2--]
[-0--0--0--0--0--0--0--0--0---0--0--0--0--0-------0--0--0--0--0--0--0----0--]
[-0--0--0--0--0--0--0--0--0---0--0--0--0--0-------0--0--0--0--0--0--0----0--]
[-0--0--0--0--0--0--0--0--0---0--0--0--0--0-------0--0--0--0--0--0--0----0--]

CHORUS GUITAR 1 AND 2
[----------------------------------------------------------------------]
[----------------------------------------------------------------------]
[-7-7-7-7-7-7-7-7-7-7-7-7-7-7-7-7-4-4-4-4-4-4-4-4-4-4-4-4-4-4-4-4------]
[-5-5-5-5-5-5-5-5-5-5-5-5-5-5-5-5-2-2-2-2-2-2-2-2-2-2-2-2-2-2-2-2------]
[-5-5-5-5-5-5-5-5-5-5-5-5-5-5-5-5-2-2-2-2-2-2-2-2-2-2-2-2-2-2-2-2------]
[-5-5-5-5-5-5-5-5-5-5-5-5-5-5-5-5-2-2-2-2-2-2-2-2-2-2-2-2-2-2-2-2------]
CHORUS (continued)
[----------------------------------------------------------------------]
[-3-3-3-3-3-3-3-3-3-3-3-3-3-3-3-3-3-3-3-3-3-3-3-3-3-3-3-3-3-3-3-3------]
[-2-2-2-2-2-2-2-2-2-2-2-2-2-2-2-2-2-2-2-2-2-2-2-2-2-2-2-2-2-2-2-2------]
[-0-0-0-0-0-0-0-0-0-0-0-0-0-0-0-0-0-0-0-0-0-0-0-0-0-0-0-0-0-0-0-0------]
[-0-0-0-0-0-0-0-0-0-0-0-0-0-0-0-0-0-0-0-0-0-0-0-0-0-0-0-0-0-0-0-0------]
[-0-0-0-0-0-0-0-0-0-0-0-0-0-0-0-0-0-0-0-0-0-0-0-0-0-0-0-0-0-0-0-0------]
CHORUS (continued)
[----------------------------------------------------------------------]
[----------------------------------------------------------------------]
[-7-7-7-7-7-7-7-7-7-7-7-7-7-7-7-7-4-4-4-4-4-4-4-4-4-4-4-4-4-4-4-4------]
[-5-5-5-5-5-5-5-5-5-5-5-5-5-5-5-5-2-2-2-2-2-2-2-2-2-2-2-2-2-2-2-2------]
[-5-5-5-5-5-5-5-5-5-5-5-5-5-5-5-5-2-2-2-2-2-2-2-2-2-2-2-2-2-2-2-2------]
[-5-5-5-5-5-5-5-5-5-5-5-5-5-5-5-5-2-2-2-2-2-2-2-2-2-2-2-2-2-2-2-2------]
CHORUS (continued)
[----------------------------------------------------------------------]
[-3-3-3-3-3-3-3-3-3-3-3-3-3-3-3-3-3-3-3-3-3-3-3-3-3-3-3-3-3-3-3-3------]
[-2-2-2-2-2-2-2-2-2-2-2-2-2-2-2-2-2-2-2-2-2-2-2-2-2-2-2-2-2-2-2-2------]
[-0-0-0-0-0-0-0-0-0-0-0-0-0-0-0-0-0-0-0-0-0-0-0-0-0-0-0-0-0-0-0-0------]
[-0-0-0-0-0-0-0-0-0-0-0-0-0-0-0-0-0-0-0-0-0-0-0-0-0-0-0-0-0-0-0-0------]
[-0-0-0-0-0-0-0-0-0-0-0-0-0-0-0-0-0-0-0-0-0-0-0-0-0-0-0-0-0-0-0-0------]
CHORUS (continued)
[----------------------------------------------------------------------]
[--------------------------------------------------------------3-------]
[-7-7-7-7-7-7-7-7-7-7-7-7-7-7-7-7-4-4-4-4-4-4-4--4-4--4-4--4-4-2-------]
[-5-5-5-5-5-5-5-5-5-5-5-5-5-5-5-5-2-2-2-2-2-2-2--2-2--2-2--2-2-0-------]
[-5-5-5-5-5-5-5-5-5-5-5-5-5-5-5-5-2-2-2-2-2-2-2--2-2--2-2--2-2-0-------]
[-5-5-5-5-5-5-5-5-5-5-5-5-5-5-5-5-2-2-2-2-2-2-2--2-2--2-2--2-2-0-------]

ENDING GUITAR 1
[---------------------------------------------------]
[-----------13-13-13-13-13-13-13-13-13-13-13-13-13--]
[-14-14-14--14-14-14-14-14-14-14-14-14-14-14-14-14--]
[-12-12-12--12-12-12-12-12-12-12-12-12-12-12-12-12--]
[---------------------------------------------------]
[---------------------------------------------------]

[------------------------------------------------------------------]
[-----------13-(13)-(13)-(13)-13-(13)-(13)-(13)-13-13-(13)-13-(13)-]
[-14-14-14--14--14---14---14--14--14---14---14--14-14--14--14--14--]
[-12-12-12--12--12---12---12--12--12---12---12--12-12--12--12--12--]
[------------------------------------------------------------------]
[------------------------------------------------------------------]
SONG EVENTUALLY FADES OUT....

            
            
Suggest correction
Creating personal tab
Creating personal tab
You can edit any tab online and save it as your Personal.

You can edit, replace or remove any tab part or add personal notes – all changes will be seen only by you.

Personal tabs can be accessed anytime from any device, even offline.
Learn more »
comments
print report bad tab
1 comment total.
0 reply
roskat.jonkun 12 Jun 03, 2017 11:35 AM

Very accurate tab indeed but why have you transposed it half a step down though? Or is it just a typo with tuning? If you tune to drop c# this is just fine anyways.

guest
You may want to rate the tab now too:
select rating
Wanna post a correction for this tab? Suggest correction