Oops, an error
Loading. Please wait.

Moana Bass Tab

version 1
version 1

Whole song

Interactive

19 views 1 this week
no commentswrite comment
1 2 3 4 5
3 more votes to show rating
add to favorites
launch autoscroll
font size
0
reset
guitar tuner
Autoscroll
slow
fast
+/-
esc
set tempo
stop
Help us to improve Ultimate-Guitar.com Take our survey!
×
Author
Difficulty
novice
Deftones - Moana 

This transcription comes from my guitarpro file of the song (you can find it on UG).
Bass 5 strings tuned down 1 1/2 steps (From low to high : G# - C# - F# - B - E)

Tempo = 124

[Intro]

No bass on the 8 first measures then

E ||-------|-------|-------|-------||
B ||-------|-------|-------|-------||
F#||-------|-------|-------|-------||
C#||--0----|-------|-------|-------|| (x3)
G#||-------|-------|-------|-------||

E |-------|-------|-------|-------|
B |-------|-------|-------|-------|
F#|-------|-------|-0-0---|-------|
C#|--0----|-------|-------|-------| 
G#|-------|-------|-------|-------|

[Verse 1]

E ||------------------------------------|------------------------------------|
B ||------------------------------------|------------------------------------|
F#||------------------------------------|------------------------------------|
C#||--0--0--0--0--7/--0\--7--7/--0\--7--|--0--0--0--0--7/--0\--7--7/--0\--7--|
G#||------------------------------------|------------------------------------|

E |---------------------------|---------------------------||
B |---------------------------|---------------------------||
F#|--0--0--0--0--0--0--0--0/--|--7--7--7--7\--0--0--0--0--||
C#|---------------------------|---------------------------||  (x 4)
G#|---------------------------|---------------------------||

E |------------------------|-----------------------|
B |------------------------|-----------------------|
F#|------------------------|-----------------------|
C#|--0--0-------0--0----0--|--0----0--0----0--0----|
G#|------------------------|-----------------------|

E |--------------------------|--------------------------|
B |--------------------------|--------------------------|
F#|--0--0--0--0--0--0--0--0--|--0--0--0--0--0--0--0--0--|
C#|--------------------------|--------------------------|
G#|--------------------------|--------------------------|

E |------------------------|-----------------------|
B |------------------------|-----------------------|
F#|------------------------|-----------------------|
C#|--0--0-------0--0----0--|--0----0--0----0--0----|
G#|------------------------|-----------------------|

E |--------------------------|--------------------------|
B |--------------------------|--------------------------|
F#|--0--0--0--0--0--0--0--0--|--0--0--0--0--0--2--2--2--|
C#|--------------------------|--------------------------|
G#|--------------------------|--------------------------|


[Chorus 1]

E ||--------------------------|--------------------------||
B ||--------------------------|--------------------------||
F#||--------------------------|--------------------------||
C#||--------------------------|--7--7--7--5--5--8--8--8--||  (x 4)
G#||--2--2--2--2--2--2--2--2--|--------------------------||

E ||-------------------------||
B ||-------------------------||
F#||-------------------------||
C#||--7--7--7--5--5--8--8----||  (x3)
G#||-------------------------||


[Verse 2]

E ||------------------------------------|------------------------------------|
B ||------------------------------------|------------------------------------|
F#||------------------------------------|------------------------------------|
C#||--0--0--0--0--7/--0\--7--7/--0\--7--|--0--0--0--0--7/--0\--7--7/--0\--7--|
G#||------------------------------------|------------------------------------|

E |---------------------------|---------------------------||
B |---------------------------|---------------------------||
F#|--0--0--0--0--0--0--0--0/--|--7--7--7--7\--0--0--0--0--||
C#|---------------------------|---------------------------||  (x 4)
G#|---------------------------|---------------------------||

E |------------------------|-----------------------|
B |------------------------|-----------------------|
F#|------------------------|-----------------------|
C#|--0--0-------0--0----0--|--0----0--0----0--0----|
G#|------------------------|-----------------------|

E |--------------------------|--------------------------|
B |--------------------------|--------------------------|
F#|--0--0--0--0--0--0--0--0--|--0--0--0--0--0--0--0--0--|
C#|--------------------------|--------------------------|
G#|--------------------------|--------------------------|

E |------------------------|-----------------------|
B |------------------------|-----------------------|
F#|------------------------|-----------------------|
C#|--0--0-------0--0----0--|--0----0--0----0--0----|
G#|------------------------|-----------------------|

E |--------------------------|--------------------------|
B |--------------------------|--------------------------|
F#|--0--0--0--0--0--0--0--0--|--0--0--0--0--0--2--2--2--|
C#|--------------------------|--------------------------|
G#|--------------------------|--------------------------|

[Chorus 2]

E ||--------------------------|--------------------------||
B ||--------------------------|--------------------------||
F#||--------------------------|--------------------------||
C#||--------------------------|--7--7--7--5--5--8--8--8--||  (x 4)
G#||--2--2--2--2--2--2--2--2--|--------------------------||

E ||-------------------------||
B ||-------------------------||
F#||-------------------------||
C#||--7--7--7--5--5--8--8----||  (x6)
G#||-------------------------||

[Bridge]

E |-------|-------|-------|-------|-------|-------|-------|---------|
B |-------|-------|-------|-------|-------|-------|-------|---------|
F#|-------|-------|-------|-------|-------|-------|-------|---------|
C#|--0----|-------|-------|-------|-------|-------|-------|------12-|
G#|-------|-------|-------|-------|-------|-------|-------|---------|

E |-------|-------|-------|-------|
B |-------|-------|-------|-------|
F#|-------|-------|-------|-------|
C#|--0----|-------|-------|-------|
G#|-------|-------|-------|-------|

E |-------|-------|-------|-------|
B |-------|-------|-------|-------|
F#|-------|-------|-0-0---|-------|
C#|--0----|-------|-------|-------| 
G#|-------|-------|-------|-------|


[Chorus 3]

E ||------------------------|-----------------------|
B ||------------------------|-----------------------|
F#||------------------------|-----------------------|
C#||--0--0-------0--0----0--|--0----0--0----0--0----|
G#||------------------------|-----------------------|

E |--------------------------|--------------------------|
B |--------------------------|--------------------------|
F#|--0--0--0--0--0--0--0--0--|--0--0--0--0--0--0--0--0--|
C#|--------------------------|--------------------------|
G#|--------------------------|--------------------------|

E |------------------------|-----------------------|
B |------------------------|-----------------------|
F#|------------------------|-----------------------|
C#|--0--0-------0--0----0--|--0----0--0----0--0----|
G#|------------------------|-----------------------|

E |--------------------------|--------------------------||
B |--------------------------|--------------------------||
F#|--0--0--0--0--0--0--0--0--|--0--0--0--0--0--2--2--2--||
C#|--------------------------|--------------------------|| (x3)
G#|--------------------------|--------------------------||

E ||--------------------------|--------------------------||
B ||--------------------------|--------------------------||
F#||--------------------------|--------------------------||
C#||--------------------------|--7--7--7--5--5--8--8--8--||  (x 4)
G#||--2--2--2--2--2--2--2--2--|--------------------------||

E ||-------------------------||
B ||-------------------------||
F#||-------------------------||
C#||--7--7--7--5--5--8--8----||  (x7)
G#||-------------------------||

E |-------|-------|-------|-------|
B |-------|-------|-------|-------|
F#|-------|-------|-------|-------|
C#|--0----|-------|-------|-------|
G#|-------|-------|-------|-------|


************************************

| /   Slide up
| \   Slide down

************************************
Suggest correction
Give kudos to tab author, rate the tab!
1 2 3 4 5
comments
print report bad tab
guest
You may want to rate the tab now too:
select rating
Wanna post a correction for this tab? Suggest correction