Oops, an error
Loading. Please wait.

Phantom Bride tab

version 2
version 2

Whole song

Interactive

703 views 9 this week
1 commentread comment
1 2 3 4 5
3 more votes to show rating
add to favorites
×
Save as Personal and add changes to this tab that will be seen only by you. Learn more ›
×
You can save this tab as Personal to edit and correct it or add notes. All changes will be seen only by you. Learn more »
launch autoscroll
font size
0
reset
how to read this tab
guitar tuner
edit
Autoscroll
slow
fast
+/-
esc
set tempo
stop
About this tab version
Full song with all the 3 guitars. Was this info helpful? Yes No
Deftones - Phantom Bride (from Gore) 2016

From my guitar pro file of the song (you can find it here on UG).

Tempo = 150
Measure with signature 3/4

Rhythm Guitar (Stephen Carpenter) - 8 strings : E B E A D G B (from low to high = drop E)
Lead Guitar (Chino Moreno) - 6 strings : C G C F A D ( = drop C)
Solo Guitar (Jerry Cantrell) - 6 strings : D# G# C# F# A# D# ( = tuned down 1/2 step)

[Intro]
 | Rhythm Guitar
B||--------------------------||
G||--------------11----------||
D||--11--12--14------14--12--||
A||--------------------------||
E||--------------------------||
B||--------------------------||
E||--------------------------||  x4
 
[Verse 1]
(16 measures) 
 | Rhythm Guitar
B||--------------------------||            B||--------------10----------||    
G||--------------11----------||            G||--------------------------||
D||--11--12--14------14--12--||            D||--11--12--14------14--12--||
A||--------------------------||            A||--------------------------||
E||--------------------------||            E||--------------------------||
B||--------------------------||            B||--------------------------||
E||--------------------------||  x15  then E||--------------------------||

In the same time :
 | Lead Guitar
D|-----------------|------------|-----------------|-----------------|
A|-------7---------|------------|-------7---------|--9----7---------|
F|--9--------------|------------|--9---------9----|------------9----|
C|------------9----|--~~--------|-----------------|-----------------|
G|-----------------|------------|-----------------|-----------------|
C|-----------------|------------|-----------------|-----------------|

D|-----------------|---------------------|-----------------------|-----------------------|
A|-----------------|--9-----------(9)----|---------(9)-----------|--(9)-----------(9)----|
F|--8----9----8----|-------(8)-----------|--(8)-----------(8)----|---------(8)-----------|
C|-----------------|---------------------|-----------------------|-----------------------|
G|-----------------|---------------------|-----------------------|-----------------------|
C|-----------------|---------------------|-----------------------|-----------------------|

D|-----------------|------------|-----------------|-----------------|
A|-------7---------|------------|-------7---------|--9----7---------|
F|--9--------------|------------|--9---------9----|------------9----|
C|------------9----|--~~--------|-----------------|--9--------------|
G|-----------------|------------|-----------------|-----------------|
C|-----------------|------------|-----------------|-----------------|

D|-----------------|---------------------|-----------------------|-----------------------|
A|-----------------|--9-----------(9)----|---------(9)-----------|--(9)-----------(9)----|
F|--8----9----8----|-------(8)-----------|--(8)-----------(8)----|---------(8)-----------|
C|-----------------|---------------------|-----------------------|-----------------------|
G|-----------------|---------------------|-----------------------|-----------------------|
C|-----------------|---------------------|-----------------------|-----------------------|

[Pre-Chorus 1]
(16 measures)
 | Rhythm Guitar :
B||--------------------------||            B||--------------10----------|--------------------------||    
G||--------------11----------||            G||--------------------------|--------------11----------||
D||--11--12--14------14--12--||            D||--11--12--14------14--12--|--11--12--14------14--12--||
A||--------------------------||            A||--------------------------|--------------------------||
E||--------------------------||            E||--------------------------|--------------------------||
B||--------------------------||            B||--------------------------|--------------------------||
E||--------------------------||  x14  then E||--------------------------|--------------------------|| x2

B||--------------------------||            B||--------------10----------||    
G||--------------11----------||            G||--------------------------||
D||--11--12--14------14--12--||            D||--11--12--14------14--12--||
A||--------------------------||            A||--------------------------||
E||--------------------------||            E||--------------------------||
B||--------------------------||            B||--------------------------||
E||--------------------------||  x4   then E||--------------------------|| x4

In the same time :
 | Lead Guitar :
D|-----------------|------------|-----------------|-----------------|
A|-------7---------|------------|-------7---------|--9----7---------|
F|--9--------------|------------|--9---------9----|------------9----|
C|------------9----|--~~--------|-----------------|-----------------|
G|-----------------|------------|-----------------|-----------------|
C|-----------------|------------|-----------------|-----------------|

D|-----------------|---------------------|-----------------------|-----------------------|
A|-----------------|--9-----------(9)----|---------(9)-----------|--(9)-----------(9)----|
F|--8----9----8----|-------(8)-----------|--(8)-----------(8)----|---------(8)-----------|
C|-----------------|---------------------|-----------------------|-----------------------|
G|-----------------|---------------------|-----------------------|-----------------------|
C|-----------------|---------------------|-----------------------|-----------------------|

D|-----------------|------------|-----------------|-----------------|
A|-------7---------|------------|-------7---------|--9----7---------|
F|--9--------------|------------|--9---------9----|------------9----|
C|------------9----|--~~--------|-----------------|--9--------------|
G|-----------------|------------|-----------------|-----------------|
C|-----------------|------------|-----------------|-----------------|

D|-----------------|---------------------|-----------------------|-----------------------|
A|-----------------|--9-----------(9)----|---------(9)-----------|--(9)-----------(9)----|
F|--8----9----8----|-------(8)-----------|--(8)-----------(8)----|---------(8)-----------|
C|-----------------|---------------------|-----------------------|-----------------------|
G|-----------------|---------------------|-----------------------|-----------------------|
C|-----------------|---------------------|-----------------------|-----------------------|

[Chorus 1]
(12 measures)
 | Rhythm Guitar :
B|-------------------|-------------------|-------------------|-------------------|
G|-------------------|-------------------|-------------------|-------------------|
D|--9----9--9--9--9--|--9----9--9--9--9--|--9----9--9--9--9--|--9----9--9--9--9--|
A|--9----9--9--9--9--|--9----9--9--9--9--|--9----9--9--9--9--|--9----9--9--9--9--|
E|--7----7--7--7--7--|--7----7--7--7--7--|--7----7--7--7--7--|--7----7--7--7--7--|
B|-------------------|-------------------|-------------------|-------------------|
E|-------------------|-------------------|-------------------|-------------------|
 | Lead Guitar :
D|-----------------|----------------|----------------|----------------|
A|--12b14----------|----------------|----------------|----------------|
F|-----------------|--13------------|--11------------|--13------------|
C|-----------------|----------------|----------------|----------------|
G|-----------------|----------------|----------------|----------------|
C|-----------------|----------------|----------------|----------------|


 | Rhythm Guitar :
B|-------------------|-------------------|-------------------|-------------------|
G|-------------------|-------------------|-------------------|-------------------|
D|--7----7--7--7--7--|--7----7--7--7--7--|--7----7--7--7--7--|--7----7--7--7--7--|
A|--7----7--7--7--7--|--7----7--7--7--7--|--7----7--7--7--7--|--7----7--7--7--7--|
E|--5----5--5--5--5--|--5----5--5--5--5--|--5----5--5--5--5--|--5----5--5--5--5--|
B|-------------------|-------------------|-------------------|-------------------|
E|-------------------|-------------------|-------------------|-------------------|
 | Lead Guitar :
D|----------------|----------------|----------------|--------------------|
A|----------------|----------------|----------------|--------------------|
F|--11------------|----------------|----------------|--------------------|
C|----------------|--14------------|--13------------|--14----13----14----|
G|----------------|----------------|----------------|--------------------|
C|----------------|----------------|----------------|--------------------|

 | Rhythm Guitar :
B|-------------------|-------------------|-------------------|-------------------|
G|-------------------|-------------------|-------------------|-------------------|
D|--5----5--5--5--5--|--5----5--5--5--5--|--7----7--7--7--7--|--7----7--7--7--7--|
A|--5----5--5--5--5--|--5----5--5--5--5--|--7----7--7--7--7--|--7----7--7--7--7--|
E|--3----3--3--3--3--|--3----3--3--3--3--|--5----5--5--5--5--|--5----5--5--5--5--|
B|-------------------|-------------------|-------------------|-------------------|
E|-------------------|-------------------|-------------------|-------------------|
 | Lead Guitar :
D|----------------|----------------|----------------|---------------|
A|----------------|----------------|----------------|--9------------|
F|--14------------|--13------------|--11------------|---------------|
C|----------------|----------------|----------------|---------------|
G|----------------|----------------|----------------|---------------|
C|----------------|----------------|----------------|---------------|

[Verse 2]
(16 measures)
 | Rhythm Guitar
B||--------------------------||            B||--------------10----------||    
G||--------------11----------||            G||--------------------------||
D||--11--12--14------14--12--||            D||--11--12--14------14--12--||
A||--------------------------||            A||--------------------------||
E||--------------------------||            E||--------------------------||
B||--------------------------||            B||--------------------------||
E||--------------------------||  x15  then E||--------------------------||

In the same time :
 | Lead Guitar
D|-----------------|------------|-----------------|-----------------|
A|-------7---------|------------|-------7---------|--9----7---------|
F|--9--------------|------------|--9---------9----|------------9----|
C|------------9----|--~~--------|-----------------|-----------------|
G|-----------------|------------|-----------------|-----------------|
C|-----------------|------------|-----------------|-----------------|

D|-----------------|---------------------|-----------------------|-----------------------|
A|-----------------|--9-----------(9)----|---------(9)-----------|--(9)-----------(9)----|
F|--8----9----8----|-------(8)-----------|--(8)-----------(8)----|---------(8)-----------|
C|-----------------|---------------------|-----------------------|-----------------------|
G|-----------------|---------------------|-----------------------|-----------------------|
C|-----------------|---------------------|-----------------------|-----------------------|

D|-----------------|------------|-----------------|-----------------|
A|-------7---------|------------|-------7---------|--9----7---------|
F|--9--------------|------------|--9---------9----|------------9----|
C|------------9----|--~~--------|-----------------|--9--------------|
G|-----------------|------------|-----------------|-----------------|
C|-----------------|------------|-----------------|-----------------|

D|-----------------|---------------------|-----------------------|-----------------------|
A|-----------------|--9-----------(9)----|---------(9)-----------|--(9)-----------(9)----|
F|--8----9----8----|-------(8)-----------|--(8)-----------(8)----|---------(8)-----------|
C|-----------------|---------------------|-----------------------|-----------------------|
G|-----------------|---------------------|-----------------------|-----------------------|
C|-----------------|---------------------|-----------------------|-----------------------|

[Pre-Chorus 2]
(16 measures)
 | Rhythm Guitar :
B||--------------------------||            B||--------------10----------|--------------------------||    
G||--------------11----------||            G||--------------------------|--------------11----------||
D||--11--12--14------14--12--||            D||--11--12--14------14--12--|--11--12--14------14--12--||
A||--------------------------||            A||--------------------------|--------------------------||
E||--------------------------||            E||--------------------------|--------------------------||
B||--------------------------||            B||--------------------------|--------------------------||
E||--------------------------||  x14  then E||--------------------------|--------------------------|| x2

B||--------------------------||            B||--------------10----------||    
G||--------------11----------||            G||--------------------------||
D||--11--12--14------14--12--||            D||--11--12--14------14--12--||
A||--------------------------||            A||--------------------------||
E||--------------------------||            E||--------------------------||
B||--------------------------||            B||--------------------------||
E||--------------------------||  x4   then E||--------------------------|| x4

In the same time :
 | Lead Guitar :
D|-----------------|------------|-----------------|-----------------|
A|-------7---------|------------|-------7---------|--9----7---------|
F|--9--------------|------------|--9---------9----|------------9----|
C|------------9----|--~~--------|-----------------|-----------------|
G|-----------------|------------|-----------------|-----------------|
C|-----------------|------------|-----------------|-----------------|

D|-----------------|---------------------|-----------------------|-----------------------|
A|-----------------|--9-----------(9)----|---------(9)-----------|--(9)-----------(9)----|
F|--8----9----8----|-------(8)-----------|--(8)-----------(8)----|---------(8)-----------|
C|-----------------|---------------------|-----------------------|-----------------------|
G|-----------------|---------------------|-----------------------|-----------------------|
C|-----------------|---------------------|-----------------------|-----------------------|

D|-----------------|------------|-----------------|-----------------|
A|-------7---------|------------|-------7---------|--9----7---------|
F|--9--------------|------------|--9---------9----|------------9----|
C|------------9----|--~~--------|-----------------|--9--------------|
G|-----------------|------------|-----------------|-----------------|
C|-----------------|------------|-----------------|-----------------|

D|-----------------|---------------------|-----------------------|-----------------------|
A|-----------------|--9-----------(9)----|---------(9)-----------|--(9)-----------(9)----|
F|--8----9----8----|-------(8)-----------|--(8)-----------(8)----|---------(8)-----------|
C|-----------------|---------------------|-----------------------|-----------------------|
G|-----------------|---------------------|-----------------------|-----------------------|
C|-----------------|---------------------|-----------------------|-----------------------|

[Chorus 2]
(24 measures)
 | Rhythm Guitar :
B||-------------------|-------------------|-------------------|-------------------|
G||-------------------|-------------------|-------------------|-------------------|
D||--9----9--9--9--9--|--9----9--9--9--9--|--9----9--9--9--9--|--9----9--9--9--9--|
A||--9----9--9--9--9--|--9----9--9--9--9--|--9----9--9--9--9--|--9----9--9--9--9--|
E||--7----7--7--7--7--|--7----7--7--7--7--|--7----7--7--7--7--|--7----7--7--7--7--|
B||-------------------|-------------------|-------------------|-------------------|
E||-------------------|-------------------|-------------------|-------------------|
 | Lead Guitar :
D||-----------------|----------------|----------------|----------------|
A||--12b14----------|----------------|----------------|----------------|
F||-----------------|--13------------|--11------------|--13------------|
C||-----------------|----------------|----------------|----------------|
G||-----------------|----------------|----------------|----------------|
C||-----------------|----------------|----------------|----------------|


 | Rhythm Guitar :
B|-------------------|-------------------|-------------------|-------------------|
G|-------------------|-------------------|-------------------|-------------------|
D|--7----7--7--7--7--|--7----7--7--7--7--|--7----7--7--7--7--|--7----7--7--7--7--|
A|--7----7--7--7--7--|--7----7--7--7--7--|--7----7--7--7--7--|--7----7--7--7--7--|
E|--5----5--5--5--5--|--5----5--5--5--5--|--5----5--5--5--5--|--5----5--5--5--5--|
B|-------------------|-------------------|-------------------|-------------------|
E|-------------------|-------------------|-------------------|-------------------|
 | Lead Guitar :
D|----------------|----------------|----------------|--------------------|
A|----------------|----------------|----------------|--------------------|
F|--11------------|----------------|----------------|--------------------|
C|----------------|--14------------|--13------------|--14----13----14----|
G|----------------|----------------|----------------|--------------------|
C|----------------|----------------|----------------|--------------------|

 | Rhythm Guitar :
B|-------------------|-------------------|-------------------|-------------------||
G|-------------------|-------------------|-------------------|-------------------||
D|--5----5--5--5--5--|--5----5--5--5--5--|--7----7--7--7--7--|--7----7--7--7--7--||
A|--5----5--5--5--5--|--5----5--5--5--5--|--7----7--7--7--7--|--7----7--7--7--7--||
E|--3----3--3--3--3--|--3----3--3--3--3--|--5----5--5--5--5--|--5----5--5--5--5--||
B|-------------------|-------------------|-------------------|-------------------||
E|-------------------|-------------------|-------------------|-------------------||
 | Lead Guitar :
D|----------------|----------------|----------------|---------------||
A|----------------|----------------|----------------|--9------------||
F|--14------------|--13------------|--11------------|---------------||
C|----------------|----------------|----------------|---------------||
G|----------------|----------------|----------------|---------------||
C|----------------|----------------|----------------|---------------||   x2

[Pre-solo]
(8 measures)
 | Rhythm Guitar
B||--------------------------||
G||--------------11----------||
D||--11--12--14------14--12--||
A||--------------------------||
E||--------------------------||
B||--------------------------||
E||--------------------------||  x8

[Solo]
(32 measures)

The rhythm guitar and the lead guitar play the VERSE 1 + PRECHORUS 1 and the solo guitar plays :

 | Solo Guitar
D#||--------------------|---------------|-----------------|-------------------|
A#||--11b13--11b13~~----|--~~-----------|--~~--------r11--|--11b13--11--------|
F#||--------------------|---------------|-----------------|-------------------|
C#||--------------------|---------------|-----------------|---------------13--|
G#||--------------------|---------------|-----------------|-------------------|
D#||--------------------|---------------|-----------------|-------------------|

D#|-----------------------|------------------|----------------|---------------------|
A#|-----------------------|------------------|----------------|---------------------|
F#|-----------------------|------------------|----------------|---------------------|
C#|--12h--13p--12~--------|--~~-------12--8--|----------------|------8--10----10----|
G#|-----------------------|------------------|--8~------------|--10-----------------|
D#|-----------------------|------------------|----------------|---------------------|

D#|--------------------|----------------------|--------------------|--------------------|
A#|--------------------|----------------------|--------------------|--13----------------|
F#|--------------------|----------------------|--10--12--------12--|--------12----------|
C#|--10b----10----~~---|--13p--12p--10--------|--------------------|--------------13----|
G#|--------------------|----------------------|--------------------|--------------------|
D#|--------------------|----------------------|--------------------|--------------------|

D#|-----------------|---------------|------------------|---------------|
A#|--11~------------|--~~-----------|--~~---11b--------|--~~-----------|
F#|--10~------------|--~~-----------|--~~--------------|---------------|
C#|-----------------|---------------|------------------|---------------|
G#|-----------------|---------------|------------------|---------------|
D#|-----------------|---------------|------------------|---------------|

D#|--15--------------------|-------------------|------------------------|------------------|
A#|------------16h-20p-16--|--15---------------|------13----------------|------------------|
F#|------------------------|------15----~~-----|--15----------8h-10p-8--|--7---------------|
C#|------------------------|-------------------|------------------------|-----8~--------~~-|
G#|------------------------|-------------------|------------------------|------------------|
D#|------------------------|-------------------|------------------------|------------------|

D#|--------------------|-------------------|---------------|---------------|
A#|--------------------|-------------------|---------------|---------------|
F#|--------10----------|-------------------|---------------|---------------|
C#|--12----------------|--12---------------|---------------|---------------|
G#|--------------13----|--------13~--------|--~~-----------|--~~-----------|
D#|--------------------|-------------------|---------------|---------------|

D#|--15--------------------|-------------------|------------------------|------------------|
A#|------------16h-20p-16--|--15---------------|------13----------------|------------------|
F#|------------------------|------15----~~-----|--15----------8h-10p-8--|--7---------------|
C#|------------------------|-------------------|------------------------|-----8~-------~~--|
G#|------------------------|-------------------|------------------------|------------------|
D#|------------------------|-------------------|------------------------|------------------|

D#|--------------------|----------------------|------------------------------|--------------------|
A#|--------------------|--13br----11----11----|--13br--11--~--13br--~--13br--|--~--13br----~------|
F#|--------10----------|----------------------|------------------------------|--------------------|
C#|--12----------------|----------------------|------------------------------|--------------------|
G#|--------------13----|----------------------|------------------------------|--------------------|
D#|--------------------|----------------------|------------------------------|--------------------|

[Chorus 3]
(48 measures)

The rhythm guitar and the lead guitar play the CHORUS 1 (12 measures) x4 and the solo guitar plays :

 | Solo Guitar
D#||------------18b20------|--~~------------|--18p20~-----------|---~~------20r18-----|--~~-----------|
A#||--18b20r18-------------|----------------|-------------------|---------------------|---------------|
F#||-----------------------|----------------|-------------------|---------------------|---------------|
C#||-----------------------|----------------|-------------------|---------------------|---------------|
G#||-----------------------|----------------|-------------------|---------------------|---------------|
D#||-----------------------|----------------|-------------------|---------------------|---------------|

D#|--18~------------|--~~-----------|--~~-----------|--16------------|--~~-------15h-16p-15--|
A#|-----------------|---------------|---------------|----------------|-----------------------|
F#|-----------------|---------------|---------------|----------------|-----------------------|
C#|-----------------|---------------|---------------|----------------|-----------------------|
G#|-----------------|---------------|---------------|----------------|-----------------------|
D#|-----------------|---------------|---------------|----------------|-----------------------|

D#|--15------------|--------------------||
A#|----------------|--16----------------||
F#|----------------|--------15----------||
C#|----------------|--------------17----||
G#|----------------|--------------------||
D#|----------------|--------------------||  x3


D#|------------18b20------|--~~------------|--18p20~-----------|---~~------20r18-----|--~~-----------|
A#|--18b20r18-------------|----------------|-------------------|---------------------|---------------|
F#|-----------------------|----------------|-------------------|---------------------|---------------|
C#|-----------------------|----------------|-------------------|---------------------|---------------|
G#|-----------------------|----------------|-------------------|---------------------|---------------|
D#|-----------------------|----------------|-------------------|---------------------|---------------|

D#|--18~------------|--~~-----------|--~~-----------|--16------------|--~~-------15h-16p-15--|
A#|-----------------|---------------|---------------|----------------|-----------------------|
F#|-----------------|---------------|---------------|----------------|-----------------------|
C#|-----------------|---------------|---------------|----------------|-----------------------|
G#|-----------------|---------------|---------------|----------------|-----------------------|
D#|-----------------|---------------|---------------|----------------|-----------------------|

D#|--15------------|-------------------------------------|
A#|----------------|-------------------------------------|
F#|----------------|-------------10h-12p-10h-12-8b10r8~~-|
C#|----------------|--10h-12h-13-------------------------|
G#|----------------|-------------------------------------|
D#|----------------|-------------------------------------|

[Bridge]
(15 measures)

Rhythm guitar tacet

 | Lead Guitar
D|--7------------|--4------------|--2------------|--4------------|
A|---------------|---------------|---------------|---------------|
F|---------------|---------------|---------------|---------------|
C|---------------|---------------|---------------|---------------|
G|---------------|---------------|---------------|---------------|
C|---------------|---------------|---------------|---------------|
 || Solo Guitar
D#|--------------------|---------------|-----------------|----------------------|
A#|------11b13------~~-|--~~-----------|---~~------------|--11b13-------13r11---|
F#|--12----------------|---------------|-----------------|----------------------|
C#|--------------------|---------------|-----------------|----------------------|
G#|--------------------|---------------|-----------------|----------------------|
D#|--------------------|---------------|-----------------|----------------------|


 | Lead Guitar
D|--7------------|--4------------|--2------------|--4------------|
A|---------------|---------------|---------------|---------------|
F|---------------|---------------|---------------|---------------|
C|---------------|---------------|---------------|---------------|
G|---------------|---------------|---------------|---------------|
C|---------------|---------------|---------------|---------------|
 || Solo Guitar
D#|---------------|-----------------|-----------------|---------------|
A#|--~~-----------|---~~------------|--11~------------|--~~-----------|
F#|---------------|-----------------|-----------------|---------------|
C#|---------------|-----------------|-----------------|---------------|
G#|---------------|-----------------|-----------------|---------------|
D#|---------------|-----------------|-----------------|---------------|


 | Lead Guitar
D|--7------------|--4------------|--2------------|--4------------|
A|---------------|---------------|---------------|---------------|
F|---------------|---------------|---------------|---------------|
C|---------------|---------------|---------------|---------------|
G|---------------|---------------|---------------|---------------|
C|---------------|---------------|---------------|---------------|
 || Solo Guitar
D#|----------------|---------------|----------------|----------------|
A#|--/8------------|--~~-----------|----------------|----------------|
F#|--/8------------|--~~-----------|--12------------|--13------------|
C#|----------------|---------------|----------------|----------------|
G#|----------------|---------------|----------------|----------------|
D#|----------------|---------------|----------------|----------------|


 | Lead Guitar
D|--7------------|--4------------|--2------------|
A|---------------|---------------|---------------|
F|---------------|---------------|---------------|
C|---------------|---------------|---------------|
G|---------------|---------------|---------------|
C|---------------|---------------|---------------|
 || Solo Guitar
D#|-----------------|---------------|---------------|
A#|-----------------|---------------|---------------|
F#|-----------------|---------------|---------------|
C#|--11b12----------|--~~-----------|--~~-----------|
G#|-----------------|---------------|---------------|
D#|-----------------|---------------|---------------|

[Outro]
(33 measures) 
 | Rhythm Guitar
B||-------------------|------------------|---------------|---------------|
G||-------------------|------------------|---------------|---------------|
D||-------------------|------------------|---------------|---------------|
A||-------------------|------------------|---------------|---------------|
E||--2-3--2---0---2---|--2-3--2---~~-----|--~~-----------|--~~-----------|
B||--2-3--2---0---2---|--2-3--2---~~-----|--~~-----------|--~~-----------|
E||--2-3--2---0---2---|--2-3--2---~~-----|--~~-----------|--~~-----------|
 | Lead Guitar
D||--7------------|--4------------|--2------------|--4------------|
A||---------------|---------------|---------------|---------------|
F||---------------|---------------|---------------|---------------|
C||---------------|---------------|---------------|---------------|
G||---------------|---------------|---------------|---------------|
C||---------------|---------------|---------------|---------------|


 | Rhythm Guitar
B|-------------------|------------------|---------------|-----------------||
G|-------------------|------------------|---------------|-----------------||
D|-------------------|------------------|---------------|-----------------||
A|-------------------|------------------|---------------|--7----7----7----||
E|--2-3--2---0---2---|--2-3--2---~~-----|--~~-----------|--7----7----7----||
B|--2-3--2---0---2---|--2-3--2---~~-----|--~~-----------|--5----5----5----||
E|--2-3--2---0---2---|--2-3--2---~~-----|--~~-----------|-----------------||
 | Lead Guitar
D|--7------------|--4------------|--2------------|--4------------||
A|---------------|---------------|---------------|---------------||
F|---------------|---------------|---------------|---------------||
C|---------------|---------------|---------------|---------------||
G|---------------|---------------|---------------|---------------||
C|---------------|---------------|---------------|---------------|| x4

During the same time (32 measures) the solo guitar plays :

 | Solo Guitar
D#|-----|-----|-----|-----|-----|-----|-----|-----|-----|-----|-----|-----|-----|-----|
A#|-----|-----|-----|-----|-----|-----|-----|-----|-----|-----|-----|-----|-----|-----|
F#|-----|-----|-----|-----|-----|-----|-----|-----|-----|-----|-----|-----|-----|-----|
C#|-----|-----|-----|-----|-----|-----|-----|-----|-----|-----|-----|-----|-----|-----|
G#|-----|-----|-----|-----|-----|-----|-----|-----|-----|-----|-----|-----|-----|-----|
D#|-----|-----|-----|-----|-----|-----|-----|-----|-----|-----|-----|-----|-----|-----|

D#|-----------------|--------------------|
A#|-----------------|--------------------|
F#|-----------------|--------10----------|
C#|-----------12----|--12----------12----|
G#|-----------------|--------------------|
D#|-----------------|--------------------|

D#|------------------|--12b13----------|--~~-------13r12---|----------------------|
A#|------------------|-----------------|-------------------|----------------------|
F#|--10b12r10b12-----|-----------------|-------------------|--10b12----10~--------|
C#|------------------|-----------------|-------------------|----------------12----|
G#|------------------|-----------------|-------------------|----------------------|
D#|------------------|-----------------|-------------------|----------------------|

D#|----------------------|--------------------|-------------------|--------------------|
A#|----------------------|------13b15----~~---|--~~-------15r13---|--------------------|
F#|----------------------|--------------------|-------------------|--------10----------|
C#|--12h--15p--12--------|--~~----------------|-------------------|--12----------12----|
G#|----------------------|--------------------|-------------------|--------------------|
D#|----------------------|--------------------|-------------------|--------------------|

D#|------------------|--12b13----------|--~~-------13r12---|----------------------|
A#|------------------|-----------------|-------------------|----------------------|
F#|--10b12r10b12-----|-----------------|-------------------|--10b12----10~--------|
C#|------------------|-----------------|-------------------|----------------12----|
G#|------------------|-----------------|-------------------|----------------------|
D#|------------------|-----------------|-------------------|----------------------|

D#||----------------------|---------------|---------------|----------------------|
A#||----------------------|---------------|---------------|----------------------|
F#||----------------------|---------------|---------------|----------------------|
C#||--12h--15p--12--------|--~~-----------|--~~-----------|--~~-----~~-12h--15p--|
G#||----------------------|---------------|---------------|----------------------|
D#||----------------------|---------------|---------------|----------------------|
 
 | Rhythm Guitar
B|---------------|
G|---------------|
D|--7------------|
A|--7------------|
E|--5------------|
B|---------------|
E|---------------|
 | Lead Guitar
D|---------------|
A|---------------|
F|--4------------|
C|--4------------|
G|--2------------|
C|---------------|
 | Solo Guitar
D#|--------------|
A#|--------------|
F#|--------------|
C#|--13----------|
G#|--------------|
D#|--------------|
 


************************************

| ~    Vibrato
| (n)  Ghost note
| b    Bend
| r    Release
| h    Hammer-on
| p    Pull-off
| br   Bend release
| /    Slide up 

************************************

            
            
Suggest correction
Creating personal tab
Creating personal tab
You can edit any tab online and save it as your Personal.

You can edit, replace or remove any tab part or add personal notes – all changes will be seen only by you.

Personal tabs can be accessed anytime from any device, even offline.
Learn more »
Give kudos to tab author, rate the tab!
1 2 3 4 5
comments
print report bad tab
1 comment total.
0 reply
TomT86 1,527 May 04, 2017 07:03 AM

I saw Deftones playing this song yesterday in Paris (they played it live for the first time) and actually during the chorus it's Stephen who plays the melody while Chino plays the rhythm guitar. And since Jerry wasn't here Chino played a solo a little bit different from the one in the studio version of the song.

guest
You may want to rate the tab now too:
select rating
Wanna post a correction for this tab? Suggest correction