Oops, an error
Loading. Please wait.

Pittura Infamante tab

1,102 views 3 this week
5 commentsread comments
1 2 3 4 5
x 4
add to favorites
×
Save as Personal and add changes to this tab that will be seen only by you. Learn more ›
×
You can save this tab as Personal to edit and correct it or add notes. All changes will be seen only by you. Learn more »
launch autoscroll
font size
0
reset
how to read this tab
guitar tuner
edit
Autoscroll
slow
fast
+/-
esc
set tempo
stop
Pittura Infamante - Deftones
Tuning: A# G C F A D


[Intro]

D |-------------------------------------------------------------------------------------|
A |-------------------------------------------------------------------------------------|
F |-19-18-16--13-13-13-13-13-13-13-13--14-14-14-14-14-14-14-14--16-16-16-16-16-16-16-16-|
C |-------------------------------------------------------------------------------------|
G |-17-16-14--11-11-11-11-11-11-11-11--12-12-12-12-12-12-12-12--14-14-14-14-14-14-14-14-|
A#|-------------------------------------------------------------------------------------|

D |--------------------------------------------------------------------------------------------|
A |--------------------------------------------------------------------------------------------|
F |-19-18-16--13-13-13-13-13-13-13-13--14-14-14-14-14-14-14-14--11-11-11-11-11-11-11-11--7-7-7-|
C |--------------------------------------------------------------------------------------------|
G |-17-16-14--11-11-11-11-11-11-11-11--12-12-12-12-12-12-12-12--9-9-9-9-9-9-9-9-9-9-9-9--5-5-5-|
A#|--------------------------------------------------------------------------------------------|


[Verse]

D |---------------------------------------------------------------------------------------|
A |---------------------------------------------------------------------------------------|
F |-9-9-9-9-9-9-9-9--12-12-12-11-11-11--14-14-14--13-13-13-13-13-13-13-13-13-13-13--7-7-7-|
C |---------------------------------------------------------------------------------------| 4x
G |-7-7-7-7-7-7-7-7--10-10-10--9--9--9--12-12-12--11-11-11-11-11-11-11-11-11-11-11--5-5-5-|
A#|---------------------------------------------------------------------------------------|


[Chorus]

D |----------------------------------------------------------|
A |----------------------------------------------------------|
F |----------------------------------------------------------|
C |----------------------------------------------------------| 3x
G |----------------------------------------------------------|
A#|-9-12-9-7-7-9-9-9-9-9-9-9-9-12-9-12-12-12-9-9-9-9-9-9-9-9-|

D |-------------------------------------------------------------|
A |-------------------------------------------------------------|
F |-------------------------------------------------------7-7-7-|
C |-------------------------------------------------------------|
G |-------------------------------------------------------5-5-5-|
A#|-9-12-9-7-7-9-9-9-9-9-9-9-9-12-9-12-12-12-9-9-9-9-9-9--------|


[Verse]

D |---------------------------------------------------------------------------------------|
A |---------------------------------------------------------------------------------------|
F |-9-9-9-9-9-9-9-9--12-12-12-11-11-11--14-14-14--13-13-13-13-13-13-13-13-13-13-13--7-7-7-|
C |---------------------------------------------------------------------------------------| 4x
G |-7-7-7-7-7-7-7-7--10-10-10--9--9--9--12-12-12--11-11-11-11-11-11-11-11-11-11-11--5-5-5-|
A#|---------------------------------------------------------------------------------------|


[Chorus]

D |----------------------------------------------------------|
A |----------------------------------------------------------|
F |----------------------------------------------------------|
C |----------------------------------------------------------| 3x
G |----------------------------------------------------------|
A#|-9-12-9-7-7-9-9-9-9-9-9-9-9-12-9-12-12-12-9-9-9-9-9-9-9-9-|


D |-------------------------------------------------------|
A |-------------------------------------------------------|
F |-------------------------------------------------------|
C |-------------------------------------------------------|
G |-------------------------------------------------------|
A#|-9-12-9-7-7-9-9-9-9-9-9-9-9-12-9-12-12-12-9-9-9-9-9-9--|


[Breakdown]

D |-------------|    D |-------------|
A |-------------|    A |-------------| 
F |-------------|    F |-------------|
C |-5/7-7-7-7-5-|    C |-8-8-8-8-7-7-| 
G |-3/5-5-5-5-3-| 3x G |-6-6-6-6/5-5-| 
A#|-------------|    A#|-------------|

(This whole part 4x)


[Bridge]

(I'm not sure about this part)

D |------------------------------------------------|
A |------------------------------------------------|
F |------------------------------------------------|
C |-5-5-5-5-5--3h5-5-5-3-7p5-6p5-3-7-7-7-7-7-7-7-7-| 3x
G |-3-3-3-3-3----------------------5-5-5-5-5-5-5-5-|
A#|------------------------------------------------|

D |----------------------------------------------------|
A |----------------------------------------------------|
F |----------------------------------------------------|
C |-5-5-5-5-5--3h5-5-5-3-7p5-6p5-3-7-7-7-7/12-12-12-12-|
G |-3-3-3-3-3----------------------5-5-5-5-------------|
A#|----------------------------------------------------|


[Verse]

D |---------------------------------------------------------------------------------------|
A |---------------------------------------------------------------------------------------|
F |-9-9-9-9-9-9-9-9--12-12-12-11-11-11--14-14-14--13-13-13-13-13-13-13-13-13-13-13--7-7-7-|
C |---------------------------------------------------------------------------------------| 4x
G |-7-7-7-7-7-7-7-7--10-10-10--9--9--9--12-12-12--11-11-11-11-11-11-11-11-11-11-11--5-5-5-|
A#|---------------------------------------------------------------------------------------|


[Outro]

D |-------------|    D |-------------|
A |-------------|    A |-------------| 
F |-------------|    F |-------------|
C |-5/7-7-7-7-5-|    C |-8-8-8-8-7-7-| 
G |-3/5-5-5-5-3-| 3x G |-6-6-6-6/5-5-| 
A#|-------------|    A#|-------------|

(This part 3x then end with)

D |-------------|    D |-------------|
A |-------------|    A |-------------| 
F |-------------|    F |-------------|
C |-5/7-7-7-7-5-|    C |-8---------9-| 
G |-3/5-5-5-5-3-| 3x G |-6---------7-| 
A#|-------------|    A#|-------------|

8-string Version

[Intro]

e |-------------------------------------------------------------------------------------|
B |-------------------------------------------------------------------------------------|
G |-17-16-14--11-11-11-11-11-11-11-11--12-12-12-12-12-12-12-12--14-14-14-14-14-14-14-14-|
D |-------------------------------------------------------------------------------------|
A |-15-14-12---9--9--9--9--9--9--9--9--10-10-10-10-10-10-10-10--12-12-12-12-12-12-12-12-|
E |-------------------------------------------------------------------------------------|
B |-------------------------------------------------------------------------------------|
E |-------------------------------------------------------------------------------------|

D |--------------------------------------------------------------------------------------------|
A |--------------------------------------------------------------------------------------------|
F |-17-16-14--11-11-11-11-11-11-11-11--12-12-12-12-12-12-12-12--9-9-9-9-9-9-9-9-9-9-9-9--5-5-5-|
C |--------------------------------------------------------------------------------------------|
G |-15-14-12---9--9--9--9--9--9--9--9--10-10-10-10-10-10-10-10--7-7-7-7-7-7-7-7-7-7-7-7--3-3-3-|
E |--------------------------------------------------------------------------------------------|
B |--------------------------------------------------------------------------------------------|
E |--------------------------------------------------------------------------------------------|

[Verse]

e |---------------------------------------------------------------------------------------|
B |---------------------------------------------------------------------------------------|
G |-7-7-7-7-7-7-7-7--10-10-10--9--9--9--12-12-12--11-11-11-11-11-11-11-11-11-11-11--5-5-5-|
D |---------------------------------------------------------------------------------------| 4x
A |-5-5-5-5-5-5-5-5---8--8--8--7--7--7--10-10-10---9--9--9--9--9--9--9--9--9--9--9--3-3-3-|
E |---------------------------------------------------------------------------------------|
B |---------------------------------------------------------------------------------------|
E |---------------------------------------------------------------------------------------|

[Chorus]

E |----------------------------------------------------------|
B |----------------------------------------------------------|
G |----------------------------------------------------------|
D |----------------------------------------------------------| 3x
A |----------------------------------------------------------|
E |----------------------------------------------------------|
B |-8-11-8-6-6-8-8-8-8-8-8-8-8-11-8-11-11-11-8-8-8-8-8-8-8-8-|
E |----------------------------------------------------------|

D |------------------------------------------------------------------|
A |------------------------------------------------------------------|
F |------------------------------------------------------------------|
C |---------------------------------------------------------10-10-10-|
G |------------------------------------------------------------------|
E |----------------------------------------------------------8--8--8-|
B |-8-11-8-6-6-8-8-8-8-8-8-8-8-11-8-11-11-11-8-8-8-8-8-8-8-8---------|
E |------------------------------------------------------------------|


[Verse]

e |---------------------------------------------------------------------------------------|
B |---------------------------------------------------------------------------------------|
G |-7-7-7-7-7-7-7-7--10-10-10--9--9--9--12-12-12--11-11-11-11-11-11-11-11-11-11-11--5-5-5-|
D |---------------------------------------------------------------------------------------| 4x
A |-5-5-5-5-5-5-5-5---8--8--8--7--7--7--10-10-10---9--9--9--9--9--9--9--9--9--9--9--3-3-3-|
E |---------------------------------------------------------------------------------------|
B |---------------------------------------------------------------------------------------|
E |---------------------------------------------------------------------------------------|


[Chorus]


E |----------------------------------------------------------|
B |----------------------------------------------------------|
G |----------------------------------------------------------|
D |----------------------------------------------------------| 3x
A |----------------------------------------------------------|
E |----------------------------------------------------------|
B |-8-11-8-6-6-8-8-8-8-8-8-8-8-11-8-11-11-11-8-8-8-8-8-8-8-8-|
E |----------------------------------------------------------|

D |-----------------------------------------------------------|
A |-----------------------------------------------------------|
F |-----------------------------------------------------------|
C |-----------------------------------------------------------|
G |-----------------------------------------------------------|
E |-----------------------------------------------------------|
B |-8-11-8-6-6-8-8-8-8-8-8-8-8-11-8-11-11-11-8-8-8-8-8-8-8-8--|
E |-----------------------------------------------------------|



[Breakdown]

e |-------------|     |-------------|
B |-------------|     |-------------| 
G |-------------|     |-------------|
D |-3/5-5-5-5-3-|     |-6-6-6-6-5-5-| 
A |-1/3-3-3-3-1-| 3x  |-4-4-4-4/3-3-| 
E |-------------|     |-------------|

(This whole part 4x)


[Bridge]

(I'm not sure about this part)

e |------------------------------------------------|
B |------------------------------------------------|
G |------------------------------------------------|
D |-3-3-3-3-3--1h3-3-3-1-5p3-4p3-1-5-5-5-5-5-5-5-5-| 3x
A |-1-1-1-1-1----------------------3-3-3-3-3-3-3-3-|
E |------------------------------------------------|
B |------------------------------------------------|
E |------------------------------------------------|

e |----------------------------------------------------|
B |----------------------------------------------------|
G |----------------------------------------------------|
D |-3-3-3-3-3--1h3-3-3-1-5p3-4p3-1-5-5-5-5/10-10-10-10-|
A |-1-1-1-1-1----------------------3-3-3-3-------------|
E |----------------------------------------------------|
B |----------------------------------------------------|
E |----------------------------------------------------|

[Verse]

e |---------------------------------------------------------------------------------------|
B |---------------------------------------------------------------------------------------|
G |-7-7-7-7-7-7-7-7--10-10-10--9--9--9--12-12-12--11-11-11-11-11-11-11-11-11-11-11--5-5-5-|
D |---------------------------------------------------------------------------------------| 4x
A |-5-5-5-5-5-5-5-5---8--8--8--7--7--7--10-10-10---9--9--9--9--9--9--9--9--9--9--9--3-3-3-|
E |---------------------------------------------------------------------------------------|
B |---------------------------------------------------------------------------------------|
E |---------------------------------------------------------------------------------------|

[Outro]

e |-------------|     |-------------|
B |-------------|     |-------------| 
G |-------------|     |-------------|
D |-3/5-5-5-5-3-|     |-6-6-6-6-5-5-| 
A |-1/3-3-3-3-1-| 3x  |-4-4-4-4/3-3-| 
E |-------------|     |-------------|
B |-------------|     |-------------|
E |-------------|     |-------------|

(This part 3x then end with)
e |-------------|     |--------------|
B |-------------|     |--------------| 
G |-------------|     |--------------|
D |-3/5-5-5-5-3-|     |-6------------| 
A |-1/3-3-3-3-1-| 3x  |-4----------5-| 
E |-------------|     |------------5-|
B |-------------|     |------------3-|                   
E |-------------|     |--------------|

************************************
| h   Hammer-on
| p   Pull-off
| /   Slide up
************************************

            
            
Suggest correction
Creating personal tab
Creating personal tab
You can edit any tab online and save it as your Personal.

You can edit, replace or remove any tab part or add personal notes – all changes will be seen only by you.

Personal tabs can be accessed anytime from any device, even offline.
Learn more »
comments
print report bad tab
5 comments total. Showing first comments.
+1 reply
ethomson 131 Apr 13, 2016 05:19 AM

its nice, it really is. but this should be played on an 8 string my man. great work none the less.

I'mma see if I can get the 8 string tabbed out for us.

0 reply
rainisaacs 56 Apr 23, 2016 12:38 PM, edited at 04:39 pm

I think I have the noodle-y part at the bridge.
D |--------------------------------------------------|A |--------------------------------------------------|F |--------------------------------------------------|C |-5-5-5-5-5--4h5---4h5h4h7h4h5h4-5-7-7-7-7-7-7-7-7-| 3xG |-3-3-3-3-3----------------------3-5-5-5-5-5-5-5-5-|A#|--------------------------------------------------|Last one:D |---------------------------------------------------------|A |---------------------------------------------------------|F |--------------------------------------------------8-8-8-7|C |-5-5-5-5-5--4h5h4-4h5h4h7h4h5h4-5-7-7-7-7-7-7-7-7--------|G |-3-3-3-3-3----------------------3-5-5-5-5-5-5-5-5--------|A#|---------------------------------------------------------|
Basically just start on the upbeat, stick on that 4, and hammer on the 5 and 7, and the downbeat will end in the next chord. It's a weird section, and I could only figure it out after slowing the song down to half speed.Otherwise, you nailed this tab, and thanks for the six string version :)

guest
You may want to rate the tab now too:
select rating
Wanna post a correction for this tab? Suggest correction