Oops, an error
Loading. Please wait.

Prayers Triangles tab

version 1
version 1

Whole song

Interactive

6,571 views 105 this week
6 commentsread comments
1 2 3 4 5
x 11
add to favorites
×
Save as Personal and add changes to this tab that will be seen only by you. Learn more ›
×
You can save this tab as Personal to edit and correct it or add notes. All changes will be seen only by you. Learn more »
launch autoscroll
font size
0
reset
how to read this tab
guitar tuner
edit
Autoscroll
slow
fast
+/-
esc
set tempo
stop
DEFTONES - PRAYERS/TRIANGLES                              
Album: GORE (2016)                                           
Tab by Godspeedy                                           
 

If you have questions or corrections feel free to send me a message:
https://www.facebook.com/Godspeedy14                   
Also check out my Youtube channel: http://www.youtube.com/user/Godspeedy14

Tuning: 7 strings BEADGBE 

Check out my cover of this song, use it as a playthrough: 
https://www.youtube.com/watch?v=XhcRAfXaXBM         

 
The tuning is not 100% correct, I'm just guessing here.         
You can just transpose this tab in any tuning you want.         
Also the highest possible tuning is Drop C (6 strings).         

 
[VERSE (00:00-00:42)]                                           |
 
Guitar 1 (w/ clean and delay)

E|------------------|------------------|------|------|
B|-13--13-----------|------------------|------|------|
G|--------13--13-10-|-10---------------|------|------|
D|------------------|----11--11-10--10~|~~~~~~|~~~~~~|
A|------------------|------------------|------|------|
E|------------------|------------------|------|------|
B|------------------|------------------|------|------|

E|------------------|------------------|-------------------------|-------------------------|
B|-13--13-----------|------------------|-------------------------|-------------------------|
G|--------13--13-10-|-10---------------|-------------------------|-------------------------|
D|------------------|----11--11-10--10-|-10-10-10-10-10-10-10-10-|-10----------------------|
A|------------------|------------------|-------------------------|----13-13-13-13-13-13-13-|
E|------------------|------------------|-------------------------|-------------------------|
B|------------------|------------------|-------------------------|-------------------------|

E|------------------|------------------|------|------|
B|-13--13-----------|------------------|------|------|
G|--------13--13-10-|-10---------------|------|------|
D|------------------|----11--11-10--10~|~~~~~~|~~~~~~|
A|------------------|------------------|------|------|
E|------------------|------------------|------|------|
B|------------------|------------------|------|------|

E|------------------|------------------|-------------------------|-------------------------|
B|-13--13-----------|------------------|-------------------------|-------------------------|
G|--------13--13-10-|-10---------------|-------------------------|-------------------------|
D|------------------|----11--11-10--10-|-10-10-10-10-10-10-10-10-|-10-10-10-10-10-10-10-10-|
A|------------------|------------------|-------------------------|-------------------------|
E|------------------|------------------|-------------------------|-------------------------|
B|------------------|------------------|-------------------------|-------------------------|

 
[CHORUS (00:42-00:55)]
 
Guitars 1 and 2 (w/ dist)

E|------------------------|------------------------|------------------------|------------------------|
B|------------------------|------------------------|------------------------|------------------------|
G|------------------------|------------------------|------------------------|------------------------|
D|-8--8--8--8--8--8--8--8-|-8--8--8--8--8--8--8--8-|-8--8--8--8--8--8--8--8-|-8--8--8--8--8--8--8--8-|
A|-8--8--8--8--8--8--8--8-|-8--8--8--8--8--8--8--8-|-8--8--8--8--8--8--8--8-|-8--8--8--8--8--8--8--8-|
E|-6--6--6--6--6--6--6--6-|-6--6--6--6--6--6--6--6-|-6--6--6--6--6--6--6--6-|-6--6--6--6--6--6--6--6-|
B|------------------------|------------------------|------------------------|------------------------|

E|------------------------|------------------------|------------------------|------------------------|
B|------------------------|------------------------|------------------------|------------------------|
G|------------------------|------------------------|------------------------|------------------------|
D|-6--6--6--6--6--6--6--6-|-6--6--6--6--6--6--6--6-|------------------------|------------------------|
A|-6--6--6--6--6--6--6--6-|-6--6--6--6--6--6--6--6-|-4--4--4--4--4--4--4--4-|-4--4--4--4--4--4--4--4-|
E|-4--4--4--4--4--4--4--4-|-4--4--4--4--4--4--4--4-|-4--4--4--4--4--4--4--4-|-4--4--4--4--4--4--4--4-|
B|------------------------|------------------------|-2--2--2--2--2--2--2--2-|-2--2--2--2--2--2--2--2-|

 
[VERSE 2 (00:55-01:26)]
 
Guitar 1 (w/ clean and delay)

E|------------------|------------------|------|------|
B|-13--13-----------|------------------|------|------|
G|--------13--13-10-|-10---------------|------|------|
D|------------------|----11--11-10--10~|~~~~~~|~~~~~~|
A|------------------|------------------|------|------|
E|------------------|------------------|------|------|
B|------------------|------------------|------|------|

E|------------------|------------------|-------------------------|-------------------------|
B|-13--13-----------|------------------|-------------------------|-------------------------|
G|--------13--13-10-|-10---------------|-------------------------|-------------------------|
D|------------------|----11--11-10--10-|-10-10-10-10-10-10-10-10-|-10----------------------|
A|------------------|------------------|-------------------------|----13-13-13-13-13-13-13-|
E|------------------|------------------|-------------------------|-------------------------|
B|------------------|------------------|-------------------------|-------------------------|

E|------------------|------------------|-------------------------|-------------------------|
B|-13--13-----------|------------------|-------------------------|-------------------------|
G|--------13--13-10-|-10---------------|-------------------------|-------------------------|
D|------------------|----11--11-10--10-|-10-10-10-10-10-10-10-10-|-10----------------------|
A|------------------|------------------|-------------------------|----13-13-13-13-13-13-13-|
E|------------------|------------------|-------------------------|-------------------------|
B|------------------|------------------|-------------------------|-------------------------|

E|------------------|------------------|-------------------------|-------------------------|
B|-13--13-----------|------------------|-------------------------|-------------------------|
G|--------13--13-10-|-10---------------|-------------------------|-------------------------|
D|------------------|----11--11-10--10-|-10-10-10-10-10-10-10-10-|-10-10-10-10-10-10-10-10-|
A|------------------|------------------|-------------------------|-------------------------|
E|------------------|------------------|-------------------------|-------------------------|
B|------------------|------------------|-------------------------|-------------------------|

 
[CHORUS 2 (01:26-01:52)]              
 
Guitars 1 and 2 (w/ dist)

E|------------------------|------------------------|------------------------|------------------------|
B|------------------------|------------------------|------------------------|------------------------|
G|------------------------|------------------------|------------------------|------------------------|
D|-8--8--8--8--8--8--8--8-|-8--8--8--8--8--8--8--8-|-8--8--8--8--8--8--8--8-|-8--8--8--8--8--8--8--8-|
A|-8--8--8--8--8--8--8--8-|-8--8--8--8--8--8--8--8-|-8--8--8--8--8--8--8--8-|-8--8--8--8--8--8--8--8-|
E|-6--6--6--6--6--6--6--6-|-6--6--6--6--6--6--6--6-|-6--6--6--6--6--6--6--6-|-6--6--6--6--6--6--6--6-|
B|------------------------|------------------------|------------------------|------------------------|\
                                                                                                       x2
E|------------------------|------------------------|------------------------|------------------------|/
B|------------------------|------------------------|------------------------|------------------------|
G|------------------------|------------------------|------------------------|------------------------|
D|-6--6--6--6--6--6--6--6-|-6--6--6--6--6--6--6--6-|------------------------|------------------------|
A|-6--6--6--6--6--6--6--6-|-6--6--6--6--6--6--6--6-|-4--4--4--4--4--4--4--4-|-4--4--4--4--4--4--4--4-|
E|-4--4--4--4--4--4--4--4-|-4--4--4--4--4--4--4--4-|-4--4--4--4--4--4--4--4-|-4--4--4--4--4--4--4--4-|
B|------------------------|------------------------|-2--2--2--2--2--2--2--2-|-2--2--2--2--2--2--2--2-|

 
[BRIDGE (01:52-02:26)]
 
Guitars 1 and 2 (w/ dist)

              .................
E|---------------|------|------|
B|---------------|------|------|
G|---------------|------|------|
D|---------------|------|------| x3
A|-8----6----10--|------|------|
E|-6----4----8---|------|------|
B|---------------|------|------|

E|------------------|--------------|--------------|--------------|----------------|
B|------------------|--------------|--------------|--------------|----------------|
G|------------------|--------------|--------------|--------------|----------------|
D|------------------|--------------|--------------|--------------|----------------|
A|-8-----6-----10---|--------------|--------------|--------------|----------------|
E|-6-----4-----8----|--------------|--------------|--------------|----------------|
B|------------------|-6---6----6---|-6---6----6---|-6---6----6---|-6---6---7---6--|

E|--------------|--------------|--------------|------------|
B|--------------|--------------|--------------|------------|
G|--------------|--------------|--------------|------------|
D|--------------|--------------|--------------|------------|
A|--------------|--------------|--------------|------------|
E|--------------|--------------|--------------|------------|
B|-6---6----6---|-6---6----6---|-6---6----6---|-6---7---6--|

E|--------------|--------------|----------|
B|--------------|--------------|----------|
G|--------------|--------------|----------|
D|--------------|--------------|----------|
A|--------------|--------------|----------|
E|--------------|--------------|----------|
B|-6---6----6---|-6---6----6---|-6---6----|

 
[CHORUS 3 (02:26-03:07)]
 
I. Guitars 1 and 2 (w/ dist)

E|------------------------|------------------------|------------------------|------------------------|
B|------------------------|------------------------|------------------------|------------------------|
G|------------------------|------------------------|------------------------|------------------------|
D|-8--8--8--8--8--8--8--8-|-8--8--8--8--8--8--8--8-|-8--8--8--8--8--8--8--8-|-8--8--8--8--8--8--8--8-|
A|-8--8--8--8--8--8--8--8-|-8--8--8--8--8--8--8--8-|-8--8--8--8--8--8--8--8-|-8--8--8--8--8--8--8--8-|
E|-6--6--6--6--6--6--6--6-|-6--6--6--6--6--6--6--6-|-6--6--6--6--6--6--6--6-|-6--6--6--6--6--6--6--6-|
B|------------------------|------------------------|------------------------|------------------------|

E|------------------------|------------------------|------------------------|------------------------|
B|------------------------|------------------------|------------------------|------------------------|
G|------------------------|------------------------|------------------------|------------------------|
D|-6--6--6--6--6--6--6--6-|-6--6--6--6--6--6--6--6-|------------------------|------------------------|
A|-6--6--6--6--6--6--6--6-|-6--6--6--6--6--6--6--6-|-4--4--4--4--4--4--4--4-|-4--4--4--4--4--4--4--4-|
E|-4--4--4--4--4--4--4--4-|-4--4--4--4--4--4--4--4-|-4--4--4--4--4--4--4--4-|-4--4--4--4--4--4--4--4-|
B|------------------------|------------------------|-2--2--2--2--2--2--2--2-|-2--2--2--2--2--2--2--2-|

II. Guitars 1 and 2 (w/ dist)

E|------------------------|------------------------|------------------------|------------------------|
B|------------------------|------------------------|------------------------|------------------------|
G|------------------------|------------------------|------------------------|------------------------|
D|-8--8--8--8--8--8--8--8-|-8--8--8--8--8--8--8--8-|-8--8--8--8--8--8--8--8-|-8--8--8--8--8--8--8--8-|
A|-8--8--8--8--8--8--8--8-|-8--8--8--8--8--8--8--8-|-8--8--8--8--8--8--8--8-|-8--8--8--8--8--8--8--8-|
E|-6--6--6--6--6--6--6--6-|-6--6--6--6--6--6--6--6-|-6--6--6--6--6--6--6--6-|-6--6--6--6--6--6--6--6-|
B|------------------------|------------------------|------------------------|------------------------|\
                                                                                                       x2
E|------------------------|------------------------|------------------------|------------------------|/
B|------------------------|------------------------|------------------------|------------------------|
G|------------------------|------------------------|------------------------|------------------------|
D|-6--6--6--6--6--6--6--6-|-6--6--6--6--6--6--6--6-|------------------------|------------------------|
A|-6--6--6--6--6--6--6--6-|-6--6--6--6--6--6--6--6-|-4--4--4--4--4--4--4--4-|-4--4--4--4--4--4--4--4-|
E|-4--4--4--4--4--4--4--4-|-4--4--4--4--4--4--4--4-|-4--4--4--4--4--4--4--4-|-4--4--4--4--4--4--4--4-|
B|------------------------|------------------------|-2--2--2--2--2--2--2--2-|-2--2--2--2--2--2--2--2-|

   Guitar 3 (w/ dist and delay)
                
                                                               ------------------|
E|------------------|------------------|------------------|---------------|      |
B|-13--13-----------|------------------|-13--13-----------|---------------|      |
G|--------13--13-10-|-10---------------|--------13--13-10-|-10------------|      |
D|------------------|----11--11-10--10-|------------------|----11--11-10--|      |
A|------------------|------------------|------------------|---------------|      |
E|------------------|------------------|------------------|---------------|      |
B|------------------|------------------|------------------|---------------|      |
                                                                                 | x2
E|------------------|---------------|------|------|                              |
B|-13--13-----------|---------------|------|------|                              |
G|--------13--13-10-|-10------------|------|------|                              |
D|------------------|----11--11-10~~|~~~~~~|~~~~~~|                              |
A|------------------|---------------|------|------|                              |
E|------------------|---------------|------|------|                              |
B|------------------|---------------|------|------|                              |
                                             -----------------------------------|
 
[OUTRO (03:07-03:38)]
 
Guitars 1 and 2 (w/ dist)

E|------------|--------------|--------------|----------------|
B|------------|--------------|--------------|----------------|
G|------------|--------------|--------------|----------------|
D|------------|--------------|--------------|----------------| x3
A|------------|--------------|--------------|----------------|
E|------------|--------------|--------------|----------------|
B|---6----6---|-6---6----6---|-6---6----6---|-6---6---7---6--|
                                                              
                                                             ...................
E|----------------|----------------|-----------|------------------|------|------|
B|----------------|----------------|-----------|------------------|------|------|
G|----------------|----------------|-----------|------------------|------|------|
D|----------------|----------------|-----------|------------------|------|------|
A|----------------|----------------|-----------|-8-----6----------|------|------|
E|----------------|----------------|-----------|-6-----4-----3----|------|------|
B|---6----6-----6-|---6----6-----6-|---6----6--|-------------1----|------|------|



************************************

| x  Dead note
| ~  Vibrato
| .. Let ring

************************************

            
            
Suggest correction
Creating personal tab
Creating personal tab
You can edit any tab online and save it as your Personal.

You can edit, replace or remove any tab part or add personal notes – all changes will be seen only by you.

Personal tabs can be accessed anytime from any device, even offline.
Learn more »
comments
print report bad tab
6 comments total. Showing first comments.
0 reply
c_t_s92 10 Mar 13, 2016 10:25 AM

For a six string tuning would be drop B or standard ?

0 reply
c_t_s92 10 Mar 14, 2016 01:17 PM

cool man thanks

0 reply
tom482 10 Jun 25, 2016 11:22 AM

What time signature is this song?

guest
You may want to rate the tab now too:
select rating
Wanna post a correction for this tab? Suggest correction