Oops, an error
Loading. Please wait.

Youve Seen The Butcher tab

version 2
version 2

Whole song

Interactive

18,244 views 57 this week
2 commentsread comments
1 2 3 4 5
x 7
add to favorites
×
Save as Personal and add changes to this tab that will be seen only by you. Learn more ›
×
You can save this tab as Personal to edit and correct it or add notes. All changes will be seen only by you. Learn more »
launch autoscroll
font size
0
reset
how to read this tab
guitar tuner
edit
Autoscroll
slow
fast
+/-
esc
set tempo
stop
Author
Difficulty
YOU'VE SEEN THE BUTCHER - Deftones
Tabbed by:joel94
Tuning: Drop F# Low to high (F#,F#,B,E,G#,C#)

This is a modified version of C# standard tuning where you drop the low C# to a 
low F#, like the dropped A tuning in Stacked Actors by Foo Fighters, Citizen 
Erased by Muse, and No One Loves Me & Neither Do I by Them Crooked Vultures 

[Main Riff]
C#|---------------------------------|
G#|---------------------------------|
E |---------------------------------|
B |---------------------------------| [2x]
F#|---------------------------------|
F#|-0--7--0-0---0-0~--0-0~----------|
PM  .  .  . .   . .   . .

C#|---------------------------------|
G#|---------------------------------|
E |---------------------------------|
B |---------------------------------|
F#|---------------------------------|
F#|-0--7--0-0--10-0-0----0-0~--0-0~-|
PM  .  .  . .   . . .    . .   . .

Not all of it is palm muted, so listen to the song to get it right

Variation during the bridge

C#|----------------------------------------|
G#|----------------------------------------|
E |----------------------------------------|
B |----------------------------------------|
F#|----------------------------------------|
F#|-0--7--0-0--10-0-0--9-0-0----0-0~--0-0~-|

[Pre-Chorus]
C#|-------------|
G#|-------------|
E |-------------|
B |-------------|
F#|-------------|
F#|-0h3h5-0h3h5-|

[Chorus]
C#|-------------------------------------|
G#|-------------------------------------|
E |-------------------------------------|
B |-------------------------------------|
F#|-------------------------------------|
F#|-0-3-5~--0-5-7~--0-10-12--12~--0h3h5-|

Okay that's the simple and mostly correct way to play the song, but I play it like this

[Main Riff]
C#|---------------------------------|
G#|---------------------------------|
E |---------------------------------|
B |---------------------------------| [2x]
F#|-0--7--0-0---0-0~--0-0~----------|
F#|-0--7--0-0---0-0~--0-0~----------|
PM  .  .  . .   . .   . .
C#|---------------------------------|
G#|---------------------------------|
E |---------------------------------|
B |---------------------------------|
F#|-0--7--0-0--10-0-0----0-0~--0-0~-|
F#|-0--7--0-0--10-0-0----0-0~--0-0~-|
PM  .  .  . .   . . .    . .   . . 
Variation during the bridge

C#|----------------------------------------|
G#|----------------------------------------|
E |----------------------------------------|
B |----------------------------------------|
F#|-0--7--0-0--10-0-0--9-0-0----0-0~--0-0~-|
F#|-0--7--0-0--10-0-0--9-0-0----0-0~--0-0~-|

[Pre-Chorus]
C#|-------------|
G#|-------------|
E |-------------|
B |-------------|
F#|-0h3h5-0h3h5-|
F#|-0h3h5-0h3h5-|

[Chorus]
C#|-------------------------------------|
G#|-------------------------------------|
E |-------------------------------------|
B |-------------------------------------|
F#|-0-3-5~--0-5-7~--0-10-12~-12~--0h3h5-|
F#|-0-3-5~--0-5-7~--0-10-12--12~--0h3h5-|

  The way I play it is just using both F# strings instead of just the low one. 
  This song is pretty simple, but you need to play it with style and make it sound 
good, maybe throwing in some extra fills.
  This tuning works well if you want to play this song along with their self-
titled album, or maybe some A Perfect Circle or ASHES dIVIDE songs.

************************************

| ~   Vibrato
| PM  Palm mute
| h   Hammer-on

************************************
Suggest correction
Creating personal tab
Creating personal tab
You can edit any tab online and save it as your Personal.

You can edit, replace or remove any tab part or add personal notes – all changes will be seen only by you.

Personal tabs can be accessed anytime from any device, even offline.
Learn more »
comments
print report bad tab
2 comments total.
+1 reply
steelinmyydream 10 May 14, 2014 11:29 PM

h = Hammer on!

+1 reply
head1 18 Dec 27, 2016 12:05 PM

The tuning is unecessary and weird, it's just played on an 8 string. F# is the 8th string standard tuning. You need to tune the 6 string the way you did because it lacks punch on flabby strings.

It would make more sense if somes leads were played that required that tuning but no leads.

But yeah, the tabs are good, just do it on a standard tuning 8 string guitar.

guest
You may want to rate the tab now too:
select rating
Wanna post a correction for this tab? Suggest correction