Oops, an error
Loading. Please wait.

Apocalyptic Fear Tab

version 2
version 2

Whole song

Interactive

177 views 1 this week
no commentswrite comment
1 2 3 4 5
please rate
add to favorites
launch autoscroll
font size
0
reset
how to read this tab
guitar tuner
Autoscroll
slow
fast
+/-
esc
set tempo
stop
Help us to improve Ultimate-Guitar.com Take our survey!
×
Contributor
Difficulty
Tuning
intermediate
D G C F A D
                           APOCALYPTIC FEAR


Album: Insineratehymn
Band:  Deicide

Tabbed by: Pacodemon
pacodemon@gmail.com


Tuning: Tune down 1 step

   INTRO
d||------------------------------------------------------------------------|
a||------------------------------------------------------------------------|
f||------------------------------------------------------------------------|
C||------------------------------------------------------------------------|
G||2---6---5---2---3---2---3---5---6---5---2---3---2---3---5---6-----------|
D||0---4---3---0---1---0---1---3---4---3---0---1---0---1---3---4-----------|




 [RIFF A
||----------------------------------------------------------------|
||----------------------------------------------------------------|
||o---------------------------------------------------------------|
||o---------------------------------------------------------------|
||------------------------------------------------------------3---|
||0000000000003-0-2-3-000000003-0-0-1-000000003-0-2-3-000000001---|
 pm..........................................................

                                   x3
|------------------------------------|
|------------------------------------|
|-----------------------------------o|
|-----------------------------------o|
|------------------------------------|
|000044443333000011110000111133334444|
 pm..................................


|----------------------------------------------------------------|
|----------------------------------------------------------------|
|----------------------------------------------------------------|
|----------------------------------------------------------------|
|------------------------------------------------------------3---|
|0000000000003-0-2-3-000000003-0-0-1-000000003-0-2-3-000000001---|
 pm..........................................................

                                                              end riff A]
|------------------------------------------------------------------------||
|------------------------------------------------------------------------||
|------------------------------------------------------------------------||
|------------------------------------------------------------------------||
|2---6---5---2---3---2---3---5---6---5---2---3---2---3---5---6-----------||
|0---4---3---0---1---0---1---3---4---3---0---1---0---1---3---4-----------||




  [RIFF B
||------------------------------------------------|
||------------------------------------------------|
||------------------------------------------------|
||------------------------------------------------|
||--------2222--------2222--------2222--------2222|
||00003333----00003333----00003333----00003333----|
  pm.............................................


|------------------------------------------------|
|------------------------------------------------|
|------------------------------------------------|
|--------3333--------3333--------3333--------3333|
|----3333--------3333--------3333--------3333----|
|1111--------1111--------1111--------1111--------|
 pm......    ........    ........    ........


|------------------------------------------------|
|------------------------------------------------|
|------------------------------------------------|
|--------5555--------5555--------5555--------5555|
|00002222----00002222----00002222----00002222----|
|------------------------------------------------|
 pm......                ........  

                                      end riff B]
|------------------------------------------------|| 
|--------6666--------6666--------6666--------6666||
|22223333----22223333----22223333----22223333----||
|------------------------------------------------||
|------------------------------------------------||
|------------------------------------------------||



 
  [RIFF C
||---------------------------------------------------------|
||---------------------------------------------------------|
||o--------------------------------------------------------|
||o----------------------------------------------------3---|
||-----3---2-3---------3---0-1---------3---2-3---------1---|
||00000--0-----00000000--0-----00000000--0-----00000000----|
 pm....................................................

                                   
|--------------------------------|
|--------------------------------|
|--------------------------------|
|--------------------------------|
|--------------------------------|
|55558888777733335555111133335555|
 pm..............................

                          end riff C]
|------------------------------------||
|------------------------------------||
|-----------------------------------o||
|5---4-----------------------5---4--o||
|3---2---5---7---3---5---7---3---2---||
|--------3---5---1---3---5-----------||



                                                    x4  
  [RIFF D (Chorus)                         end riff D]
||----------------------------------------------------||
||----------------------------------------------------||
||o--------------------------------------------------o||
||o---9-8---------6-5---------3-2---------2-2-3-2----o||
||----7-6---------4-3---------1-0---------0-0-1-0-5-3-||
||0-0---------0-0---------0-0---------0-0---------3-1-||
  pm...       .....       .....       ...............




-RIFF A



-RIFF B



  [RIFF E
||---------------------------------------------------------|
||---------------------------------------------------------|
||o----------------------------------------------------5---|
||o----5---4-5---------5---2-3---------5---4-5---------3---|
||---------------------------------------------------------|
||00000--0-----00000000--0-----00000000--0-----00000000----|
 pm....  .     ........  .     ........  .     ........
                             

|--------------------------------|
|--------------------------------|
|--------------------------------|
|--------------------------------|
|55558888777733335555111133335555|
|--------------------------------|
 pm..............................

                          end riff E]
|------------------------------------||
|------------------------------------||
|5---4-----------------------5---4--o||
|3---2---5---7---3---5---7---3---2--o||
|--------3---5---1---3---5-----------||
|------------------------------------||



  SOLO [Guit. 1 with riff D (Chorus)]
||----------------------------------------------------------|
||----------------------------------------------------------|
||----------------------------------------------------------|
||----------------------------------------------------------|
||------------------------3-----------2~~~~~~~~~~~~~~~~~~~~~|
||------------0~~~~~~~~~~~----------------------------------|
             \*/(*Half step down with tremolo bar)


||----------------------------------------------------------|
||----------------------------------------------------------|
||------------------------------------2-----~~~~~~~~~~~~~~~~|
||------------1~~~~~~~~~~~2---------------------------------|
||~~~~~~~~~~~~----------------------------------------------|
||----------------------------------------------------------|


             * (dead note)
||-----------x5-----------1-----------0~~~~~~~~~~~~~~~~~~~~~|
||----------------------------------------------------------|
||----------------------------------------------------------|
||----------------------------------------------------------|
||----------------------------------------------------------|
||----------------------------------------------------------|



||~~~~~~~~~~~~----------------------------------------------|
||------------3-----------1~~~~~~~~~1h2~~~~~~~~~~~~~~~~~~~~~|
||----------------------------------------------------------|
||----------------------------------------------------------|
||----------------------------------------------------------|
||----------------------------------------------------------|



  Guit. 1 starts with Riff A to end
||----------------------------------------------------------||
||5~~~~~~~~~~~~~~~~~~~~~~~~---------------------------------||
||----------------------------------------------------------||
||----------------------------------------------------------||
||----------------------------------------------------------||
||----------------------------------------------------------||
  NH(maybe slight inverted dip to 1/4 with trem. bar before diping down)




-So Riff A to end
comments
We did not receive enough feedback on this tab! Please rate:
print report bad tab
1 2 3 4 5
I want to post or [tab]
guest
You may want to rate the tab now too:
select rating
Please do not post tabs as comments. Select "correction" instead!