Oops, an error
Loading. Please wait.

Bastard Of Christ Tab

version 1
version 1

Whole song

Interactive

by Deicide
4,231 views 3 this week
1 commentread comment
1 2 3 4 5
1 last vote to show rating
add to favorites
×
Save as Personal and add changes to this tab that will be seen only by you. Learn more ›
×
You can save this tab as Personal to edit and correct it or add notes. All changes will be seen only by you. Learn more »
save as personal
new!
launch autoscroll
font size
0
reset
how to read this tab
guitar tuner
Autoscroll
slow
fast
+/-
esc
set tempo
stop
Author
Tuning
Unregistered
D# G# C# F# A# D#
Bastard of Christ

Deicide
Serpents of the Light

Tune down 1/2 step


Riff A               (end Riff A)
|--------------------------------|--------------------------------|
|--------------------------------|--------------------------------|
|--------------------------------|--------------------------------|
|--------------------------------|--------------------------------|
|--------------------------------|--------------------------------|
|0-0-2-2-2-2-2-2-2-2-2-2-2-2-2-2-|0-0-2-2-2-2-2-2-3-3-3-3-2-2-2-2-|

Riff B                                                    (end Riff B)
|---------------------------------------------------------------------|
|---------------------------------------------------------------------|
|---------------------------------------------------------------------|
|---------------------------------------------------------------------|
|2-------------2------------------2-------------2-----------------3333|
|0-0-0-0-3333220-0-0-0-3-66666666-0-0-0-0-3333220-0-0-0-3-66666666----|

Riff C      (end Riff C)
|----------------|
|----------------|
|----------------|
|----------------|
|1---0-----0-----|
|--2---0-1---1-0-|

Riff D
|--------------------------------------------------------|
|--------------------------------------------------------|
|--------------------------------------------------------|
|--------------------------------------------------------|
|2--------------2---1---6---5--2----5----3--2----5----3--|
|0--0-0-3-0-1-0---0---0---0----0--0-3--0-1--0--0-3--0-1--|


|---------------------------------------------------------|
|---------------------------------------------------------|
|---------------------------------------------------------|
|---------------------------------------------------------|
|2-----------------------8---7--2----5----3--2----5----3--|
|0--0-0-8-0-7-0-10-0-8-0---0----0--0-3--0-1--0--0-3--0-1--|

                                                                        (end
Riff D)
|-----------------------------------------------------------------------------------|
|-----------------------------------------------------------------------------------|
|-----------------------------------------------------------------------------------|
|------------------------8---7------------------------------------------------------|
|-------8---7---10---8----------2----5----3--2----5----3--2----5----3--2----5----3--|
|0--0-0---0---0----0---0---0----0--0-3--0-1--0--0-3--0-1--0--0-3--0-1--0--0-3--0-1--|


Song structure:

Riff A x6
Riff B x6
Riff C x4
Riff A x5
Riff D x2
Riff B x6
Riff C x4
Riff A x2
Riff D x1
Riff B
Suggest correction
Give kudos to tab author, rate the tab!
1 2 3 4 5
comments
print report bad tab
1 comment total.
0 reply
Idhan 10 Sep 25, 2009 09:00 AM

This is one of the most bad-ass songs ever written. Freakin hard to play but it sounds perfect.

guest
Wanna post a correction for this tab? Suggest correction