Oops, an error
Loading. Please wait.

Conviction Tab

3,201 views 3 this week
no commentswrite comment
1 2 3 4 5
please rate
add to favorites
launch autoscroll
font size
0
reset
how to read this tab
guitar tuner
Autoscroll
slow
fast
+/-
esc
set tempo
stop
Help us to improve Ultimate-Guitar.com Take our survey!
×
Author
Difficulty
Tuning
intermediate
D# G# C# F# A# D#
-------------------------------------------------------------------------------
                             Conviction - Deicide
-------------------------------------------------------------------------------
Tabbed by: Liam Thomas - mylanta2837
E-mail: liamthomas95@yahoo.com

Tuning: 1/2 step down (Eb,Ab,Db,Gb,Bb,Eb)

Part A
e|---------------------------------------------------------------------------|
B|---------------------------------------------------------------------------|
G|---------------------------------------------------------------------------|
D|-8-7-6-5-4-3---------------------------------------------------------------|
A|-6-5-4-3-2-1-7-6-5-4-3-2---------------------------------------------------|
E|-------------5-4-3-2-1-0---------------------------------------------------|

Part B
e|---------------------------------------------------------------------------|
B|---------------------------------------------------------------------------|
G|---------------------------------------------------------------------------|
D|--------------8-7-6/5---------------------------8-7-6-5--------------------|
A|-3-2------3---6-5-4/3------3---6-5-3-2------3---6-5-4/3------3----3--------|
E|-1p0-0000-1-0---------0000-1-0-4-3-1p0-0000-1-0---------0000-1-00-1--------|

Part C
e|---------------------------------------------------------------------------|
B|---------------------------------------------------------------------------|
G|---------------------------------------------------------------------------|
D|-------------------6-5----------------------------------6-5----------------|
A|-------------6--5--4/3----------------------------6--5--4/3--------3----3--|
E|-1p0000000100-00-00---00000001004003001p0000000100-00-00---0000000-1-00-1--|

Part D ("A day of death upon the cross of deceit..")
e|-----------------------------|----------|----------------------|-----------|
B|---------------------- (x2) -|--- (x1) -|------------- (x2) ---|---- (x4) -|
G|-----------------------------|----------|----------------------|-----------|
D|-----------------------------|----------|----------------------|-----------|
A|-3----3-2--------------------|-3----3-2-|------3----3----3-3-2-|---3----3-2|
E|-1-00-1p0-000000000000000000-|-1-00-1p0-|-0000-1-00-1-00-1-1p0-|-0-1-00-1p0|

Chorus ("COOOOOOONNNNNNVICTION...")
e|---------------------------------------------------------------------------|
B|------------------------------ (x4) ---------------------------------------|
G|---------------------------------------------------------------------------|
D|-5----4----3---------------------------------------------------------------|
A|-5----4----3---------------------------------------------------------------|
E|-3----2----1----1111111111111----------------------------------------------|

I couldn't figure out the solo exactly, but if you fiddle around in the Em scale, you 
can get something that sounds fine.

Order:
Part A x1
Part B x3
Part C x2
Part D x1
Part B x2
Part C x2
Part D x1
Chorus
Part A x1
Part B x2*
Part C x2*
Part D x1
Chorus
Part A x1

*Under solo
Suggest correction
Give kudos to tab author, rate the tab!
1 2 3 4 5
comments
print report bad tab
guest
You may want to rate the tab now too:
select rating
Wanna post a correction for this tab? Suggest correction