Oops, an error
Loading. Please wait.

Day Of Darkness Tab

version 1
version 1

Whole song

Interactive

703 views 1 this week
no commentswrite comment
1 2 3 4 5
please rate
add to favorites
launch autoscroll
font size
0
reset
how to read this tab
guitar tuner
Tab Pro tools
  • play this tab
  • loop segment
  • change instrument
  • show fretboard
  • metronome
Autoscroll
slow
fast
+/-
esc
set tempo
stop
                           DEICIDE - DAY OF DARKNESS    
                           From the Album - DEICIDE 
                           Copyright: R/C RECORDS 1990 
                           Version 1.0 - Aug 6, 2002

Transcribed By: James Williams (Inverted) 

For Questions, Comments, Newest Version, Corrections or Request; 
Contact Inverted: at Inverted_one@hotmail.com 

Check Out Death8699.com, With More Transcriptions On It: 
http://www.death8699.com 

.  - palm mute           /  - slide up to 
\  - slide down to       ~  - vibrato 
h  - hammer on           b  - Bend 
p  - pull off            Suffixes for bend 
t  - tap                 f  - full bend    h - half bend 
ph - pinched harmonic    q  - quarter bend t - tap bend 
*  - see comment         ^  - Hold bend    r release bend 
x  - Stuccatto           ~  - vibrato bend 
,  - slight palm mute    () - ghost note, sustained note 
"  - tremolo note        <> - Trill 

Tunning "D#"G#"C#"F#"A#"D#" 


Riff 1               x3                     x1
|----------------------|----------------------|
|----------------------|----------------------|
|----------------------|----------------------|
|--553322--------------|--553322--------------|
|--------553322-----2--|--------553322--------|
|--------------5533-0--|--------------553322--|
   ................       ..................

Riff 2
|-----------------------------------------------|
|-----------------------------------------------|
|-----------------------------------------------|
|--------------------------------------------3--|
|--------------------------------------------1--|
|--3-2-0-2-1-0-3-2-0-5-4-0-3-2-0-2-1-0-3-2-0----|
   . . . . . . . . . . . . . . . . . . . . .

Riff 3
|------------------------------------|
|------------------------------------|
|------------------------------------|
|------------------------------------|
|--------------------------44--------|
|--000000000000445577777777--775544--|
   ,,,,,,,,,,,,,,,,,,,,,,,,,,,,,,,,

Riff 4
|--------------------------------------|
|--------------------------------------|
|--------------------------------10/9--|
|---------------------------------8/7--|
|---------0-5-4--0-6-5--0-8-7--0-------|
|--0-0-0-------------------------------|
   . . .  . . .  . . .  . . .  .

Riff 5                                                             x2
|--------------------------------------------------------------------|
|--------------------------------------------------------------------|
|--------------------------------------------------------------------|
|--------------------------------------------------------------------|
|--------------------------------------------------------------------|
|--0000000000000000111111111111111155555555555555556666666666666666--|
|                                                                    |
|                                                                  x1|
|--------------------------------------------------------------------|
|--------------------------------------------------------------------|
|--------------------------------------------------------------------|
|-----------------------------------5--------------------------------|
|-----------------------------------5--------------------------------|
|--99999999999999991111111111111111-3--------------------------------|



Check out my other tabs by: Deicide, Obituary, Hypocrisy, 
Grave, Catastrophic, Six Feet Under, Incantation, Death and 
Cannibal Corpse.
comments
We did not receive enough feedback on this tab! Please rate:
print report bad tab
1 2 3 4 5
I want to post or [tab]
guest
You may want to rate the tab now too:
select rating
Please do not post tabs as comments. Select "correction" instead!