Oops, an error
Loading. Please wait.

Dead By Dawn Bass Tab

version 1
version 1

Whole song

Interactive

2,803 views 15 this week
1 commentread comment
1 2 3 4 5
accurate
x 3
add to favorites
launch autoscroll
font size
0
reset
guitar tuner
Autoscroll
slow
fast
+/-
esc
set tempo
stop
Help us to improve Ultimate-Guitar.com Take our survey!
×
Author
Artist: Deicide
Song: Dead By Dawn
Tuning: E A D G 


Fig. 1 x2

G|-----------|
D|-----------|
A|--3--------|
E|----4-5-2--|

Riff 1 x6

G|-------------------|
D|-------------------|
A|--333--------------|
E|------444-555-222--|

Riff 2 x5

G|---------------------------|-----------------------------|
D|---------------------------|--------------------------5--|
A|--------11111-22222-44444--|--------11111-22222-25432----|
E|--00000--------------------|--00000----------------------|
    .....                       .....

Fig. 2 x7

G|-----------------------------------|
D|-----------------------------------|
A|----------------------------3-2----|
E|--1-0-1-0-2-1-0-1-0-1-0-1-0-----0--|
    . . . . . . . . . . . . . . . .

Riff 3 x4

G|-----------------------------------------|
D|-----------------------------------------|
A|-----------------------------------------|
E|--222222222222222222-111111111111111111--|

Repeat Fig. 2 x12

Riff 4 x28

G|---------------|
D|---------------|
A|---------------|
E|--2-1-3-2-1-0--|

Fig. 3 x6

G|------------------------------------------------------------|
D|------------------------------------------------------------|
A|------------------------------------------------------------|
E|--1-00000000-3-3-1-00000000-3-3-1-00000000-3-3-1-000--6--3--|
      ........       ........       ........       ...

Repeat Riff 2 x4

Riff 5 x10

G|-----------------------|
D|-----------------------|
A|--3-2-------3-2--------|
E|------3-2-1-----3-1-0--|

Repeat Riff 3 x8
Repeat Fig. 2 x12

End x1

G|-----|
D|-----|
A|-----|
E|--1--|
Suggest correction
Give kudos to tab author, rate the tab!
1 2 3 4 5
comments
print report bad tab
1 comment total.
0 reply
Drezzdez 51 wrote on April 6 2009, 04:32 am

Looks good bro! Add my MSN craphead_285@hotmail.com

FUCK YOUR GOD

guest
You may want to rate the tab now too:
select rating
Please do not post tabs as comments. Select "correction" instead!