Oops, an error
Loading. Please wait.

Dead By Dawn Tab

version 1
version 1

Whole song

Interactive

6,074 views 3 this week
no commentswrite comment
1 2 3 4 5
please rate
add to favorites
launch autoscroll
font size
0
reset
how to read this tab
guitar tuner
Tab Pro tools
  • play this tab
  • loop segment
  • change instrument
  • show fretboard
  • metronome
×
Best way to learn
"Dead By Dawn"
Autoscroll
slow
fast
+/-
esc
set tempo
stop
=================================================================================================
Song: Dead by Dawn
Artist: Deicide
Album: Deicide (1990)

Tabbed by James "Inverted" Williams (Inverted_one@hotmail.com) with major corrections by Chris Rezendes (dudemcrude@yahoo.com)

Tuning: Half step down

Notation Key
v: vibrato
t: tremolo bar
^: bend
.: palm mute
~: trill
p: pull-off
h: hammer-on
x: ghost note
/: slide up
\: slide down

Comments:  I used some parts of Inverted's tab as a base for some of the parts in here.  Most of the tab was off, but it gave you the idea of how the song goes.  I just wanted to get a correct version out there.  Keep in mind it's a lot easier to correct a tab with a lot of mistakes in it than it is to make your own tab with a lot of mistakes in it from scratch.  Or something.  Whatever.  If you spot a mistake, and I doubt you will, point it out to me so I can fix it.  Or something.  Whatever.  Later.
=================================================================================================

Fig. 1 x2
e|-----------|
B|-----------|
G|-----------|
D|--5--------|
A|--3-6-7-4--|
E|----4-5-2--|

Riff 1 x6
e|-------------------|
B|-------------------|
G|-------------------|
D|-------------------|
A|--333--------------|
E|------444-555-222--|

Riff 2 x5
e|---------------------------|-----------------------------|
B|---------------------------|-----------------------------|
G|---------------------------|--------------------------7--|
D|---------------------------|--------------------47654-5--|
A|--------11111-22222-44444--|--------11111-22222-25432----|
E|--00000--------------------|--00000----------------------|
    .....                       .....

Fig. 2 x7
e|-----------------------------------|
B|-----------------------------------|
G|-----------------------------------|
D|----------------------------5-4----|
A|--3---3---4-3---3---3---3---3-2----|
E|--1-0-1-0-2-1-0-1-0-1-0-1-0-----0--|
    . . . . . . . . . . . . . . . .

Riff 3 x4
e|-----------------------------------------|
B|-----------------------------------------|
G|-----------------------------------------|
D|-----------------------------------------|
A|-----------------------------------------|
E|--222222222222222222-111111111111111111--|

Repeat Fig. 2 x12

Riff 4 x28
e|---------------|
B|---------------|
G|---------------|
D|---------------|
A|---------------|
E|--2-1-3-2-1-0--|

Fig. 3 x6
e|------------------------------------------------------------|
B|------------------------------------------------------------|
G|------------------------------------------------------------|
D|--3----------5-5-3----------5-5-3----------5-5-3------8--5--|
A|--3----------5-5-3----------5-5-3----------5-5-3------8--5--|
E|--1-00000000-3-3-1-00000000-3-3-1-00000000-3-3-1-000--6--3--|
      ........       ........       ........       ...

Repeat Riff 2 x4

Riff 5 x10
e|-----------------------|
B|-----------------------|
G|-----------------------|
D|-----------------------|
A|--3-2-------3-2--------|
E|------3-2-1-----3-1-0--|

Repeat Riff 3 x8
Repeat Fig. 2 x12

End x1
e|-----|
B|-----|
G|-----|
D|--3--|
A|--3--|
E|--1--|

Check out Inverted's other tablatures of songs by such bands as Deicide, Obituary, Catastophic,
Six Feet Under, Hypocrisy and Grave.
comments
We did not receive enough feedback on this tab! Please rate:
print report bad tab
1 2 3 4 5
I want to post or [tab]
guest
You may want to rate the tab now too:
select rating
Please do not post tabs as comments. Select "correction" instead!