Oops, an error
Loading. Please wait.

Dead By Dawn Tab

version 2
version 2

Whole song

Interactive

4,010 views 1 this week
1 commentread comment
1 2 3 4 5
please rate
add to favorites
launch autoscroll
font size
0
reset
how to read this tab
guitar tuner
Tab Pro tools
  • play this tab
  • loop segment
  • change instrument
  • show fretboard
  • metronome
×
Best way to learn
"Dead By Dawn"
Autoscroll
slow
fast
+/-
esc
set tempo
stop
Contributor
Difficulty
Tuning
intermediate
D# G# C# F# A# D#
palm mute                  /  - slide up to
\  - slide down to              ~  - vibrato
"  - tremelo picking           ( ) - ghost note
b  - bend                       h  - hammer-on
fb - full bend (1 step)         p  - pull-off
hb - half bend (1/2 step)       r  - release a bend
t  - tapping                    ah - artificial harmonic

Tune Gtr to E-flat [Eb,Ab,Db,Gb,Bb,Eb]

--D E A D  B Y  D A W N--
This part isn't quite right but...
Riff 1                  x2                         x6
|-------------------------|--------------------------|
|-------------------------|--------------------------|
|-------------------------|--------------------------|
|--5--4--------5--4-------|--------------------------|
|--3--2--6--4--3--2--6--4-|-3"-2"-------3"-2"--------|
|--------4--2--------4--2-|-------4"-2"-------4"-2"--|
   .  .  .  .  .  .  .  .

Riff 2
|------------------------------------------------------|
|------------------------------------------------------|
|------------------------------------------------------|
|-------------------------------------------------6\7--|
|---------------------------------11-10--8--6--5--4\5--|
|--000066667777999999000066667777--9--8--6--4--3-------|
                                   .  .  .  .  .
Riff 2-A
|------------------------------------------------------|
|------------------------------------------------------|
|------------------------------------------------------|
|-------------------------------------------------6\7--|
|--2x-----------------------------11-10--8--6--5--4\5--|
|--0x------------------------------9--8--6--4--3-------|
                                   .  .  .  .  .

Riff 3
|-----------------------------------|------------------------------------|
|-----------------------------------|------------------------------------|
|-----------------------------------|------------------------------------|
|------------------------------5/4--|-------------------------------5/4--|
|--5---4---5---4---5---4---5---3/2--|---5---4---5---4---5---4---5---3/2--|
|--3-0-2-0-3-0-2-0-3-0-2-0-3-0------|-0-3-0-2-0-3-0-2-0-3-0-2-0-3-0------|
   . . . . . . . . . . . . . .        . . . . . . . . . . . . . . .

Solo 1

  (Tremelo bar             - )
|--<7>~~~~~~~~~~~~~~~~~~~~~~~~(7)~~~~~~~~~~~~~~~~~~~~~~~~(7)---------|
|--n.h.--------------------------------------------------------------|
|*------------------------------------------------------------------*|
|*------------------------------------------------------------------*|
|--------------------------------------------------------------------|
|--------------------------------------------------------------------|


|--------------------------------------------------------------------|
|--000-8910119101112101112131211-----000--10111213111213141213141514-|
|*------------------------------1211--------------------------------*|
|*------------------------------------------------------------------*|
|--------------------------------------------------------------------|
|b-------------------------------------------------------------------|


|--------------------------------------------------------------------|
|--1312------000--1213141513141516141516171615------000--------------|
|*-----1514-----------------------------------1716------------------*|
|*------------------------------------------------------------------*|
|--------------------------------------------------------------------|
|--------------------------------------------------------------------|


|--/19181716---------------------------------------------------------|
|-----------19181716-------------------------------------------------|
|*------------------19181716----------------------------------------*|
|*--------------------------1918171615141312131415141312------------*|
|-------------------------------------------------------15141312-----|
|---------------------------------------------------------------1514-|

        (Tremelo bar  - )
|--------------------------------------------------------------------|
|-------20~~~~~~(20)~~~~~~(20)\-/17~~~~~~(17)~~~~~~(17)~~~~~~~~~~~~~~|
|*------------------------------------------------------------------*|
|*------------------------------------------------------------------*|
|--------------------------------------------------------------------|
|--1312--------------------------------------------------------------|

Play Riff 2 (5 times)
    Riff 3 (8 times)

Riff 4-A                   x1
|----------------------------|
|----------------------------|
|----------------------------|
|----------------------------|
|----------------------------|
|--2""1""2""1""2""1""2""1""--|
   ........................

Play Riff 3 (12 times)

Riff 5
|---------------------------------------------------|
|---------------------------------------------------|
|---------------------------------------------------|1st measure
|---------------------------------------------------|
|---------------------------------------------------|
|--3-2-0-3-2-0-2-1-0-2-1-0-3-2-0-3-2-0-2-1-0-2-1-0--|
|  . . . . . . . . . . . . . . . . . . . . . . . .  |
|---------------------------------------------------|
|---------------------------------------------------|
|---------------------------------------------------|2nd measure
|---------------------------------------------------|
|---------------------------------------------------|
|--3-2-0-2-1-0-3-2-0-2-1-0-3-2-0-2-1-0-3-2-0-2-1-0--|
   . . . . . . . . . . . . . . . . . . . . . . . .

Riff 5 Play Measure 1 (1 time)
            Measure 2 (1 time)
            Measure 1 (1 time)
            Measure 2 (2 times)
            Measure 1 (1 time)
            Kill Riff 5 with an E5 chord!
Riff 6                                                      x6
|-------------------------------------------------------------|
|-------------------------------------------------------------|
|----------------------------------------------------5--------|
|-----------5-4-3----------5-4-3----------5-4-3------5--4--3--|
|-----------5-4-3----------5-4-3----------5-4-3------3--4--3--|
|--00000000-3-2-1-00000000-3-2-1-00000000-3-2-1-0000----2--1--|

Riff 6-A                                                1st 2x
|-------------------------------------------------------------|
|-------------------------------------------------------------|
|----------------------------------------------------5--------|
|-----------5-4-3x---------5-4-3x---------5-4-3x-----5--4--3--|
|-----------5-4-3x---------5-4-3x---------5-4-3x-----3--4--3--|
|-----------3-2-1x---------3-2-1x---------3-2-1x--------2--1--|

Play Riff 2 (4 times) mute the last chord and then
                     flow right into Riff 7

Riff 7 (Solo riff)   x9                         x1
|----------------------|--------------------------|
|----------------------|--------------------------|
|----------------------|--------------------------|
|------------5/4-------|--------------------------|
|----5-4-----3/2---4\5-|--------------------------|
|--0-3-2-0-0-----0-2\3-|-0-3-2-0-0-3-2-0-0-3-2-0--|
   . . . . .     .       . . . . . . . . . . . .

Solo 2

(Sweeps     - |                    | -      - |
|--------------------------------------------------------------------|
|--------------------------------------------------------------------|
|*-8---------8\--------------------/8--------8\---------------------*|
|*---9----9----/91011121011121314\----9----9----/91011121011121314\-*|
|------10-------------------------------10---------------------------|
|--------------------------------------------------------------------|

                                                 [Tremelo bar      - )
|----------------------/12131415141312----15141512~~~~~~~~~~~~~(12\)-|
|--/12131415141312--------------------1514---------------------------|
|*----------------1514----------------------------------------------*|
|*------------------------------------------------------------------*|
|--------------------------------------------------------------------|
|--------------------------------------------------------------------|

(Weird effects                                                       -
|--------------------------------------------------------------------|
|--------------------------------------------------------------------|
|*-------------13----------------------13--12--13-------------------*|
|*---------14------14--------------14--------------14---------------*|
|------14--------------14------14----------------------14------14----|
|--15----------------------15------------------------------15--------|

                                                                     -
|--------------------------------------------------------------------|
|-----------------------9----------------------9--8--9---------------|
|*-----1213\--------10-----10--------------10-----------10----------*|
|*-14-----------11-------------11------11-------------------11------*|
|-----------12---------------------12---------------------------12---|
|--------------------------------------------------------------------|

            - )
|--------------------------------------------------------------------|
|----------89\------------9--8--9--8--7-----------------10--9--10----|
|*-----10--------------9-----------------9----------10--------------*|
|*-11---------------9---------------------------11------------------*|
|---------------10--------------------------12-----------------------|
|--------------------------------------------------------------------|
                 .  .  .  .                  .   .   .   .
                                         (Tremelo bar               -

|--------------------------------------------------------------------|
|--9--------------------------13--12~~\--17--(18)--(17)--12----------|
|*----12--11--------------11----------------------------------------*|
|*------------11------11--------------------------------------------*|
|-----------------12-------------------------------------------------|
|--------------------------------------------------------------------|
comments
We did not receive enough feedback on this tab! Please rate:
print report bad tab
1 2 3 4 5
1 comment total.
+1 reply
nathan565 wrote on June 14 2009, 07:52 pm

Riff 1 x2 x6
|-------------------------|--------------------------|
|-------------------------|--------------------------|
|-------------------------|--------------------------|
|--5--4--------5--4-------|--------------------------|
|--3--2--6--4--3--2--6--4-|-3"-2"-------3"-2"--------|
|--------4--2--------4--2-|-------4"-2"-------4"-2"--|
. . . . . . . .

Try changing it to

|--------------------------|
|--------------------------|
|-3"-------------3"--------|
|---4"-5"-2"-------4"-5"-2"|
. . . . . . . .
w/ The power chords too.

I want to post or [tab]
guest
You may want to rate the tab now too:
select rating
Please do not post tabs as comments. Select "correction" instead!