Oops, an error
Loading. Please wait.

Deicide Tab

version 1
version 1

Whole song

Interactive

6,181 views 4 this week
no commentswrite comment
1 2 3 4 5
accurate
x 6
add to favorites
launch autoscroll
font size
0
reset
how to read this tab
guitar tuner
Tab Pro tools
  • play this tab
  • loop segment
  • change instrument
  • show fretboard
  • metronome
×
Best way to learn
"Deicide"
Autoscroll
slow
fast
+/-
esc
set tempo
stop
                            DEICIDE - DEICIDE
                         From the Album: DEICIDE
                       Copyright: R/C RECORDS 1990
                       Version 1.0 - April 1, 2002

Transcribed By: James Williams (Inverted)

For Questions, Comments, Request, Newest Version, or Corrections;
 Contact Inverted: at Inverted_one@hotmail.com

Check Out Death8699.com, With More Transcriptions On It:
 http://www.death8699.com

.  - palm mute           /  - slide up to
\  - slide down to       ~  - vibrato
h  - hammer on           b  - Bend
p  - pull off            Suffixes for bend
t  - tap                 f  - full bend    h - half bend
ph - pinched harmonic    q  - quarter bend t - tap bend
*  - see comment         ^  - Hold bend    r release bend
x  - Stuccatto           ~  - vibrato bend
,  - slight palm mute    () - ghost note, sustained note
"  - tremolo note        <> - Trill

Tunning "D#"G#"C#"F#"A#"d#"

Riff 1
|----------------------------------------------------------------------
|----------------------------------------------------------------------
|----------------------------------------------------------------------
|--9-10-----9-----12-----11-----9-10-----9-----12-----11-----12-14-----
|--7--8-----7-----10------9-----7--8-----7-----10------9-----10-12-----
|-------000---000----000----000------000---000----000----000-------000-
        ...   ...    ...    ...      ...   ...    ...    ...       ...

------------------------------------------------------------------------
------------------------------------------------------------------------
------------------------------------------------------------------------
-9-----12-----11--------------9-----12------11----------9-10-----12-----
-7-----10------9-----10-9-----7-----10-------9-----9-10-7--8-----10-----
---000----000----000--8-7-000---000-----000----000-7--8------000----000-
   ...    ...    ...      ...   ...    ...    ...           ...    ...

-------------------------------------------------------------------------
-------------------------------------------------------------------------
-------------------------------------------------------------------------
-11-----12-14-----9-----12-----11-----99-10-----9-----12-----11----------
--9-----10-12-----7-----10------9-----77--8-----7-----10------9-----10-9-
----000-------000---000----000----000-------000---000----000----000--8-7-
    ...       ...   ...    ...    ...      ...   ...    ...    ...

------------------------------------|
------------------------------------|
------------------------------------|
-----9-----12-----11----------------|
-----7-----10------9------5--4------|
-000---000----000----000--3--2------|
...   ...    ...    ...

NO LORD SHALL STAND BEFORE MYSELF!!!

Riff 2-A
|----------------------------------------------------|
|----------------------------------------------------|
|----------------------------------------------------|
|----------------------------------------------------|
|--331100221100331100221100331100221100--------------|
|--------------------------------------111111111111--|
   ,,,,,,,,,,,,,,,,,,,,,,,,,,,,,,,,,,,,

Riff 2-B
|----------------------------------------------------|
|----------------------------------------------------|
|----------------------------------------------------|
|---------------------------------------------4-3-2--|
|--331100221100331100221100331100221100-3-2-1--------|
|----------------------------------------------------|
   ,,,,,,,,,,,,,,,,,,,,,,,,,,,,,,,,,,,, . . . . . .

Riff 2-C
|----------------------------------------------------|
|----------------------------------------------------|
|----------------------------------------------------|
|---------------------------------------3x-----------|
|--331100221100331100221100331100221100-3x-----------|
|---------------------------------------1x-----------|
   ,,,,,,,,,,,,,,,,,,,,,,,,,,,,,,,,,,,,

Riff 3
|------------------------------------------|
|------------------------------------------|
|------------------------------------------|
|--2--------5--------4--------------4-3-2--|
|--2--------5--------4--------3-2-1--------|
|--0-000000-4-000000-2-000000--------------|
     ,,,,,,   ,,,,,,   ,,,,,, . . . . . .

|------------------------------------------|
|------------------------------------------|
|------------------------------------------|
|--2--------5--------4--------------4-3-2--|
|--2--------5--------4--------3-2-1--------|
|--0-000321-3-000321-2-000000--------------|
     ,,,,,,   ,,,,,,   ,,,,,, . . . . . .

Riff 4
|---------------------------------------------------|
|---------------------------------------------------|
|---------------------------------------------------|
|--2-----5-----4-----5-----3-----5-----------4-3-2--|
|--2-----5-----4-----5-----3-----5-----3-2-1--------|
|--0-000-3-000-2-000-3-000-1-000-3-000--------------|
     ...   ...   ...   ...   ...   ... . . . . . .

Play Riff 2-A ( 4 times)
     Riff 2-B ( 1 times)
     Riff 3   ( 2 times)
     Riff 4   ( 4 times)
     Riff 2-A ( 3 times)
     Riff 2-B ( 1 times)

Riff 5
|---------------------------------|---------------------------------|
|---------------------------------|---------------------------------|
|---------------------------------|---------------------------------|
|------9-8-----ph-----------------|-----9-8-----ph------------------|
|--8-7-----7-6-8~-----9p8-----8p7-|-8-7-----7-6-8~-----10p9-----9p8-|
|-----------------8-7-----7-6-----|----------------9-8------8-7-----|
                  . .     . .                      . .      . .

|---------------------------------|---------------------------------
|---------------------------------|---------------------------------
|---------------------------------|---------------------------------
|------9-8-----ph-----------------|-----9-8-----ph------------------
|--8-7-----7-6-8~-----9p8-----8p7-|-8-7-----7-6-8~-----10p9-----9p8-
|-----------------8-7-----7-6-----|----------------9-8------8-7-----
                  . .     . .                      . .      . .

------------------|
------------------|
------------------|
------------------|
-----8p7-----7p6--|
-7-6-----6-5------|
. .     . .

Riff 5, repeat 1st 2 measures ( 4 times)
               2nd 2 measures ( 1 time )

Riff 6-A
|-----------------------------------------------------------------|
|-----------------------------------------------------------------|
|-----------------------------------------------------------------|
|--------------------------------------------------8p7-----7p6----|
|----------0-9-8-7---------0-9-8-7---------0-9-8-7----h9p8----h8--|
|--0-8-7-6---------0-8-7-6---------0-8-7-6------------------------|
   . . . . . . . . . . . . . . . . . . . . . . . .

Riff 6-B
|--------------------------------------------------------------
|--------------------------------------------------------------
|--------------------------------------------------------------
|----------8p7-----7p6-----------8p7-----7p6---8p7-----7p6-----
|-------------h9p8----h8------------h9p8----h8----h9p8-----h8--
|--0-8-7-6---------------0-8-7-6-------------------------------
   . . . .               . . . .

-------------------------------|
-------------------------------|
-------------------------------|
-8p7-----7p6---8p7----7p6-10x--|
----h9p8----h8----h9p8-----8x--|
-------------------------------|

Riff 7-A
|---------------------------------------------------|
|---------------------------------------------------|
|---------------------------------------------------|
|---------------------------------------------------|
|--------------------------7-6-0-6-5-0-5-4-0-4-3-0--|
|--3-2-0-2-1-0-3-2-0-2-1-0--------------------------|
   . . . . . . . . . . . . . . . . . . . . . . . .

7-B
|---------------------------------------------------|
|---------------------------------------------------|
|---------------------------------------------------|
|---------------------------------------------------|
|--7-6-0-6-5-0-5-4-0-4-3-0-7-6-0-6-5-0-5-4-0-4-3-0--|
|---------------------------------------------------|
   . . . . . . . . . . . . . . . . . . . . . . . .

Play Riff 6-A ( 6 times)
     Riff 7-A ( 7 times)
     Riff 7-B ( 2 times)
     Riff 6-A ( 6 times)
     Riff 6-B ( 1 times)
     Pause
     Riff 3   ( 2 times)
     Riff 4   ( 4 times)
     Riff 2-A ( 3 times)
     Riff 2-B ( 1 times) End!

Check out my other tabs by: Deicide, Obituary, Hypocrisy,
 Grave, Catastrophic, Six Feet Under, Incantation and Death.

Check Out Death8699.com, With More Transcriptions On It:
 http://www.death8699.com
comments
print report bad tab
I want to post or [tab]
guest
You may want to rate the tab now too:
select rating
Please do not post tabs as comments. Select "correction" instead!