Oops, an error
Loading. Please wait.

Go Now Your Lord Is Dead Tab

271 views 1 this week
no commentswrite comment
1 2 3 4 5
3 more votes to show rating
add to favorites
launch autoscroll
font size
0
reset
how to read this tab
guitar tuner
Autoscroll
slow
fast
+/-
esc
set tempo
stop
Help us to improve Ultimate-Guitar.com Take our survey!
×
.  - palm mute           /  - slide up to
\  - slide down to       ~  - vibrato
h  - hammer on           b  - Bend
p  - pull off            Suffixes for bend
t  - tap                 f  - full bend    h - half bend
ph - pinched harmonic    q  - quarter bend t - tap bend
*  - see comment         ^  - Hold bend    r release bend
x  - Stuccatto           ~  - vibrato bend
,  - slight palm mute    () - ghost note, sustained note
"  - tremolo note        <> - Trill
*G  - Gallop.


Now, time to raise some more hell!.


Intro/Riff#1.(2X)
|----------------------------------||
|----------------------------------||
|----------------------------------||
|--------7--7-------------6--------||
|(G)--------------(G)-------(0)----||
|555--5--------5--444--4--------5--||
 ...  .           ...  .

Riff#2. Fast Tremolo Picking/except where spaced/noted.
Guitar 1.(4X)
|------------------------------------------------------||
|------------------------------------------------------||
|---------------------"--------------------------------||
|"------"------"------5-----------7--7-------6-6-6-6-6-||
|7------4------7------4------"----------"--------------||
|6------3------6-------------5----------4--------------||
                             .          .

Riff#2. Fast Tremolo Picking/except where spaced/noted.
Guitar 2.(2X)
|------------------------------------------------------|
|------------------------------------------------------|
|---------------------"--------------------------------|
|"------"------"------5-----------7--7-------6-6-6-6-6-|
|7------4------7------4------"----------"--------------|
|6------3------6-------------5----------4--------------|
                             .          .

Riff#2. Guitar 2, Continued..(2X)
|------------------------------------------------------||
|------------------------------------------------------||
|---------------------"-----------9--9-------8-8-8-8-8-||
|"------"------"------5-----------7--7-------6-6-6-6-6-||
|7------4------7------4------"----------"--------------||
|6------3------6-------------5----------4--------------||
                             .          .

Riff#3. Fast tremolo pickin. (2X)
|------------------------------------------------------------|
|------------------------------------------------------------|
|------------6-------------------------------6---------------|
|----5---4-------5---4---7---3-------5---4-------5---4---7---|
|"-------------------------------"---------------------------|
|2-------------------------------2---------------------------|
 .                               .

Riff#3. Continued..
|------------------------||
|------------------------||
|------------6-----------||
|----5---4-------5---4---||
|"-----------------------||
|2-----------------------||
 .
Repeat Riff#1(2X)
Repeat Riff#2(4X)Both guitars..
Repeat Riff#3(2X)

Riff#4/1rst Solo riff.  Fast trem pickin..(2X)All together.
               (Play 2X)                     (Play 2X)
|---------------------------------------|--------------------||
|------------------------------------"--|--------------------||
|"---"---"---"---"---"---"---"---"---6--|7-7-------6-6-------||
|8---7---8---5---8---7---8---4---5------|5-5--"----4-4--"----||
|---------------------------------------|-----0---------0----||
|---------------------------------------|--------------------||

Riff#5/2nd Solo riff.  Fast trem pickin..(4X)
|----------------------------------------------------|
|----------------------------------------------------|
|"---"---"--------"---"---"---"---"------"---"-------|
|7---6---7---"----7---6---7---6---9---7---6---7--"---|
|5---4---5---8----5---4---5---4---7---5---4---5--8---|
|------------6-----------------------------------6---|

Riff#5/2nd Solo riff continued..
|----------------||
|------------"---||
|"---"---"---9---||
|7---6---7---7---||
|5---4---5-------||
|----------------||

Transition..
|------------------------------------------------------------|
|------------------------------------------------------------|
|7--7-------6--6-------7--7-------6--6-------7--7-------6--6-|
|5--5--"----4--4--"----5--5--"----4--4--"----5--5--"----4--4-|
|------0----------0----------0----------0----------0---------|
|------------------------------------------------------------|
       .          .          .          .          .

Transition Continued..
|------------------||
|------------------||
|-----7-7-------6--||
|"----5-5--"----4--||
|0---------0-------||
|------------------||
 .         .    .

outro/Same like first riff.
|-----------------------------------------------------------||
|-----------------------------------------------------------||
|-----------------------------------------------------------||
|--------7--7-------------6----------------7--7-------------||
|-G----------------G--------(0)-----G-----------------G-----||
|555--5--------5--444--4--------5--555--5--------5---444--4-||
 ...  .           ...  .           ...  .            ...  .

END
Suggest correction
Give kudos to tab author, rate the tab!
1 2 3 4 5
comments
print report bad tab
guest
You may want to rate the tab now too:
select rating
Wanna post a correction for this tab? Suggest correction