Oops, an error
Loading. Please wait.

In Hell I Burn Bass Tab

version 1
version 1

Whole song

Interactive

754 views 1 this week
no commentswrite comment
1 2 3 4 5
please rate
add to favorites
launch autoscroll
font size
0
reset
guitar tuner
Tab Pro tools
  • play this tab
  • loop segment
  • change instrument
  • show fretboard
  • metronome
×
Best way to learn
"In Hell I Burn"
Autoscroll
slow
fast
+/-
esc
set tempo
stop
Contributor
Artist: Deicide
Song: In Hell I Burn
Tuning: E A D G

Intro
|--------------------------------------------------------------|
|--------------------------------------------------------------|
|-222244445555-2---22224444---1---222244445555-2-22224444---7\-|
|---------------------------1-----------------------------1----|

Intro Continued...
|-------------------------------------------------------------|
|-------------------------------------------------------------|
|-222244445555-2---22224444---1---222244445555-2-22224444---1-|
|---------------------------1-----------------------------1---|

Riff A
|---------------------------------------|
|---------------------------------------|
|-222222333333-3h4-----------2h3--------|
|------------------333222222-----111111-|
                                        ____  ________
Riff A Continued...                    |1,2  |3
|-------------------------------------------|---------|
|--------------3h4-----------2h3------------|---------|
|-222222333333----------------------------1-|-2-----1-|
|------------------333222222-----111111-1---|---001---|

Riff B
|-----------------------------------|
|-----------------------------------|
|---------------------------2-----1-|
|-000-000-000-000-000-00000---001---|

Riff C                             ____   ____
                                  |1,4   |2,3
|------------------------------------|  |---|
|------------------------------------|  |---|
|-2-0-1----2-0-1----2-0-1----2-----0-|  |-1-|
|-------00-------00-------00---001---|  |---|

                                   ______  _______
Riff D                            |1,2,3  |4
|------------------------------------|   |--------|
|------------------------------------|   |--------|
|-2-0-1----2-0-1----2-0-1----2-----0-|   |-1------|
|-------00-------00-------00---001---|   |---0000-|

Riff E
|-------------------------------------------------------------------|
|-------------------------------------------------------------------|
|-222244445555-2---222244445555-----222244445555-2-222244445555-----|
|-------------------------------3-2-----------------------------3-2-|
Riff E Continued...
|-------------------------------------------------------------------|
|-------------------------------------------------------------------|
|-222244445555-2---2222444433337777222244445555-2-222244445555------|
|-------------------------------------------------------------------|
Riff E Continued...
  ________________  ________________________  ______________________________
 |1                |2                        |3
|-----------------|-------------------------|-------------------------------|
|-----------------|-------------------------|-----------------------------2-|
|-----------------|-------------------------|---------------1-2-1-1-2-2-1---|
|-1-2-1-1-1-2-1-1-|-1-2-1-1-1-2-1-1-1-2-1-1-|-1-2-1-1-1-2-1-----------------|
                                                ____________  __
Riff F                                         |1            |2
|-----------------------------------------------------------|---|
|-------2-3-0---------0-1-----------------------------------|---|
|-------------------------3-------3-4-1---------0-2-3-------|---|
|-4-1-3-------4-1-3-3-------4-0-1-------4-1-3-1-------3-2-1-|-3-|

Riff G
|-----------------------------------------------------------|
|-----------------------------------------------------------|
|-2-3-2---1-------4-5-4---1-------2-3-2---1-------4-5-4---1-|
|-------3---2-3-2-------5---2-3-2-------3---2-3-2-------5---|

Riff H
|--------------------------------------------------------------|
|--------------------------------------------------------------|
|-222244445555-2---22224444---1---222244445555-2-22224444---7\-|
|---------------------------1-----------------------------1----|

Riff H Continued...
|-------------------------------------------------------------|
|-------------------------------------------------------------|
|-222244445555-2---22224444---1---222244445555-2-222244445555-|
|---------------------------1---------------------------------|
Riff H Continued...
  ________________  ________________________  ______________________________
 |1                |2                        |3
|-----------------|-------------------------|-------------------------------|
|-----------------|-------------------------|-----------------------------2-|
|-----------------|-------------------------|---------------1-2-1-1-2-2-1---|
|-1-2-1-1-1-2-1-1-|-1-2-1-1-1-2-1-1-1-2-1-1-|-1-2-1-1-1-2-1-----------------|
comments
We did not receive enough feedback on this tab! Please rate:
print report bad tab
1 2 3 4 5
I want to post or [tab]
guest
You may want to rate the tab now too:
select rating
Please do not post tabs as comments. Select "correction" instead!