Oops, an error
Loading. Please wait.

In Hell I Burn Tab

version 1
version 1

Whole song

Interactive

2,060 views 1 this week
2 commentsread comments
1 2 3 4 5
please rate
add to favorites
launch autoscroll
font size
0
reset
how to read this tab
guitar tuner
Autoscroll
slow
fast
+/-
esc
set tempo
stop
Help us to improve Ultimate-Guitar.com Take our survey!
×
			IN HELL I BURN BY DEICIDE
			FROM THE "LEGION" ALBUM
			COPYRIGHT 1992 THE ALL BLACKS

				Version 1.0

			Transcribed by Schizophrenia
			E-mail: symbolic@jps.net

NOTES:

Tuning: Standard tunning (1:E, 2:B, 3:G, 4:D, 5:A, 6:E)

In Hell I Burn Is a surprisingly hard song with very subtle complexities to it.
Besides being complex, the guitaring is quite dirty.  Sometimes the palm muting
is inconsistent and even a riff is inconsistenty played.  As far as palm muting
goes, use your own judgement. As far as Riff F and G go, good luck on the timing.

	I hope you enjoy my tab and mail me if you have any corrections.  
------------------------------------------------------------------------------


Intro
|--------------------------------------------------------------|
|--------------------------------------------------------------|
|--------------------------------------------------------------|
|--------------4--------------3----------------4---------------|
|-222244445555-2---22224444-3-1---222244445555-2-22224444-3-7\-|
|---------------------------1-----------------------------1----|
Intro Continued...
|-------------------------------------------------------------|
|-------------------------------------------------------------|
|-------------------------------------------------------------|
|--------------4--------------3----------------4------------3-|
|-222244445555-2---22224444-3-1---222244445555-2-22224444-3-1-|
|---------------------------1-----------------------------1---|

Riff A
|---------------------------------------|
|---------------------------------------|
|---------------------------------------|
|---------------------------------------|
|-222222333333-3h4-----------2h3--------|
|------------------333222222-----111111-|
                                        ____  ________
Riff A Continued...                    |1,2  |3
|-------------------------------------------|---------|
|-------------------------------------------|---------|
|-------------------------------------------|---------|
|--------------3h4-----------2h3----------3-|-4-----3-|
|-222222333333--------------------------3-1-|-2-----1-|
|------------------333222222-----111111-1---|---001---|

Riff B
|-----------------------------------|
|-----------------------------------|
|-----------------------------------|
|---------------------------4-----3-|
|---------------------------2-----1-|
|-000-000-000-000-000-00000---001---|

Riff C                             ____   ____
Guitar I                          |1,4   |2,3
|------------------------------------|  |---|
|------------------------------------|  |---|
|------------------------------------|  |---|
|----------------------------4-------|  |-3-|
|-2-0-1----2-0-1----2-0-1----2-----0-|  |-1-|
|-------00-------00-------00---001---|  |---|
|                                  ______  __
|Guitar II                        |1,2,3  |4
|------------------------------------|   |---|
|------------------------------------|   |---|
|------------------------------------|   |---|
|----------------------------4-----3-|   |---|
|----------------------------2-----1-|   |-0-|
|-00000000000000000000000000---001---|   |---|

                                   ______  _______
Riff D                            |1,2,3  |4
|------------------------------------|   |--------|
|------------------------------------|   |--------|
|------------------------------------|   |--------|
|-----3--------3--------3----4-------|   |-3------|
|-2-0-1----2-0-1----2-0-1----2-----0-|   |-1------|
|-------00-------00-------00---001---|   |---0000-|

Riff E
|-------------------------------------------------------------------|
|-------------------------------------------------------------------|
|-------------------------------------------------------------------|
|--------------4---------------------------------4------------------|
|-222244445555-2---222244445555-----222244445555-2-222244445555-----|
|-------------------------------3-2-----------------------------3-2-|
Riff E Continued...
|-------------------------------------------------------------------|
|-------------------------------------------------------------------|
|-------------------------------------------------------------------|
|--------------4--------------------------------4-------------------|
|-222244445555-2---2222444433337777222244445555-2-222244445555------|
|-------------------------------------------------------------------|
Riff E Continued...
  ________________  ________________________  ______________________________
 |1                |2                        |3
|-----------------|-------------------------|-------------------------------|
|-----------------|-------------------------|-------------------------------|
|-----------------|-------------------------|-------------------------------|
|-----------------|-------------------------|-----------------------------2-|
|-----------------|-------------------------|---------------1-2-1-1-2-2-1---|
|-1-2-1-1-1-2-1-1-|-1-2-1-1-1-2-1-1-1-2-1-1-|-1-2-1-1-1-2-1-----------------|
                                                ____________  __
Riff F                                         |1            |2
|-----------------------------------------------------------|---|
|-----------------------------------------------------------|---|
|-----------------------------------------------------------|---|
|-------2-3-0---------0-1-----------------------------------|---|
|-------------------------3-------3-4-1---------0-2-3-------|---|
|-4-1-3-------4-1-3-3-------4-0-1-------4-1-3-1-------3-2-1-|-3-|

Riff G
|-----------------------------------------------------------|
|-----------------------------------------------------------|
|-----------------------------------------------------------|
|-----------------------------------------------------------|
|-2-3-2---1-------4-5-4---1-------2-3-2---1-------4-5-4---1-|
|-------3---2-3-2-------5---2-3-2-------3---2-3-2-------5---|

Riff H
|--------------------------------------------------------------|
|--------------------------------------------------------------|
|--------------------------------------------------------------|
|--------------4--------------3----------------4---------------|
|-222244445555-2---22224444-3-1---222244445555-2-22224444-3-7\-|
|---------------------------1-----------------------------1----|
Riff H Continued...
|-------------------------------------------------------------|
|-------------------------------------------------------------|
|-------------------------------------------------------------|
|--------------4--------------3----------------4--------------|
|-222244445555-2---22224444-3-1---222244445555-2-222244445555-|
|---------------------------1---------------------------------|
Riff H Continued...
  ________________  ________________________  ______________________________
 |1                |2                        |3
|-----------------|-------------------------|-------------------------------|
|-----------------|-------------------------|-------------------------------|
|-----------------|-------------------------|-------------------------------|
|-----------------|-------------------------|-----------------------------2-|
|-----------------|-------------------------|---------------1-2-1-1-2-2-1---|
|-1-2-1-1-1-2-1-1-|-1-2-1-1-1-2-1-1-1-2-1-1-|-1-2-1-1-1-2-1-----------------|
comments
We did not receive enough feedback on this tab! Please rate:
print report bad tab
1 2 3 4 5
2 comments total.
0 reply
Warlock-Revenge 67 wrote on August 18 2009, 12:31 am

Deicide doesn't play in standard tuning.

0 reply
08L1V10N 4,654 wrote on February 21 2011, 11:44 am

I think riff G starts with

A232 1
E 3 230

I want to post or [tab]
guest
You may want to rate the tab now too:
select rating
Please do not post tabs as comments. Select "correction" instead!