Oops, an error
Loading. Please wait.

In The Eyes Of God Tab

222 views 1 this week
no commentswrite comment
1 2 3 4 5
3 more votes to show rating
add to favorites
launch autoscroll
font size
0
reset
how to read this tab
guitar tuner
Autoscroll
slow
fast
+/-
esc
set tempo
stop
Help us to improve Ultimate-Guitar.com Take our survey!
×
Difficulty
Tuning
intermediate
D# G# C# F# A# D#
okay this is deicides in the eyes of god off the album
till death do us part
tuning is D# or half a step down from e standard
tabber;ben chaffins
im putting it in standard so its easier to read
 here you will hammer on that is a 10 after 7

 intro is played 4 times
e-------------------------------------------------------------------|
b-------------------------------------------------------------------|
g-------------------------------------------------------------------|
d-------------------------------------------------------------------|
a-------------------------------------------------------------------|
e-777777h877777h977777h1077777666666-444445554444666444777444433333-|

 riff 1
e----------------------------------------------|
b----------------------------------------------|
g----------------------------------------------|
d----------------------------------------------|
a----------------------------------------------|
e-00004444555544446666444477774444000033334444-|
  ............................................
riff 2
e---------------------------------------------------------------------------|
b---------------------------------------------------------------------------|
g---------------------------------------------------------------------------|
d---------------------------------------------------------------------------|
a---------------------------------------------------------------------------|
e-3333555533336666000022223333222244442222555500001111222211113333111144444-|
  .........................................................................

play riff 1 and 2 together 2 times

riff 3
e------------------------------------------------------------|
b------------------------------------------------------------|
g------------------------------------------------------------|
d------------------------------------------------------------|
a----------------------------------------------------------2-|
e-333333333322222222221111111111-/////-1111111111-00000000-0-|
                                                  ........ .
riff 4 here is played 10 times
e-------------------------------------|
b-------------------------------------|
g-------------------------------------|
d-------------------------------3-2-1-|
a------------5/4------------5/4-------|
e-0000000000-3/2-0000000000-3/2-------|
  ..........     ..........     . . .

then your intro again  here is played 4 times
e------------------------------------------------------------------|
b------------------------------------------------------------------|
g------------------------------------------------------------------|
d------------------------------------------------------------------|
a------------------------------------------------------------------|
e-777777h87777h977777h1077777666666-444455544466644477744444333333-|

riff 1 and 2 after intro again is played 2 times
e------------------------------------------------|
b------------------------------------------------|
g------------------------------------------------|
d------------------------------------------------|
a------------------------------------------------|
e-0000444455554444666644447777444400003333344444-|
  ..............................................

e---------------------------------------------------------------------------|
b---------------------------------------------------------------------------|
g---------------------------------------------------------------------------|
d---------------------------------------------------------------------------|
a---------------------------------------------------------------------------|
e-3333555533336666000022223333322224444222255550000111122221111333311114444-|
  .........................................................................

riff 3 again
e--------------------------------------------------------|
b--------------------------------------------------------|
g--------------------------------------------------------|
d--------------------------------------------------------|
a------------------------------------------------------2-|
e-33333333222222222111111111-/////-11111111-0000000000-0-|
                                            .......... .

riff 4 again played 10 times again

then intro again x 4
then solo after solo riff 4 again x8 then intro x4 that is all enjoy
Suggest correction
Give kudos to tab author, rate the tab!
1 2 3 4 5
comments
print report bad tab
guest
You may want to rate the tab now too:
select rating
Wanna post a correction for this tab? Suggest correction