Oops, an error
Loading. Please wait.

Kill The Christians Bass Tab

1,784 views 1 this week
no commentswrite comment
1 2 3 4 5
please rate
add to favorites
launch autoscroll
font size
0
reset
guitar tuner
Autoscroll
slow
fast
+/-
esc
set tempo
stop
Help us to improve Ultimate-Guitar.com Take our survey!
×
Author
Artist: Deicide
Song: Kill The Chistians
Tuning: Eb Ab Db Gb

Riff 1
|------------------------------------------|
|------------------------------------------|
|--------------------------------2222------|
|--4444-0000-1111-0000-4444-0000------0000-|
        ....      ....      ....      ....
Fig. 1
|--------------------------|
|--------------------------|
|--------------------2-----|
|--4-4-0-1-1-0-4-4-0---0-1-|
       .     .     .   . 

Fig. 2
    this x3                        then this
|---------------------------|-----------------------------------|
|---------------------------|-----------------------------------|
|------------------------3--|--------------------------4--------|
|--000000000000-1/222222----|--44444444444444444-4-4-4----------|

    this x3                       then this
|---------------------------|----------------------------------------|
|---------------------------|----------------------------------------|
|------------------------3--|--------------------------------------3-|
|--000000000000-1/222222----|--44444444444444-4-4-4-33333333-3-3-3---|

Fig. 3
|---------------|--------------|
|----0----------|--------------|
|---------------|----3---------|
|--4---0-4-3-0--|--2---0-2-1-0-|
       .     .         .     .

Fig. 4
|------------------------|
|----0-------------------|
|----------4-----3-----2-|
|--4---0-3---0-2---0-1---|
       .     .     .

Fig. 4b
|-----------------------|
|-----2----1-----0------|
|--1-----0------------4-|
|------0-----0-4---0-3--|
       .     .     .

Fig. 4c
|-------------------------|
|----5------4-----3-----2-|
|--4-----3------2-----1---|
|------0------0-----0-----|
       .      .     .


Order of play

Riff 1 x8
Fig. 1 x8
Riff 1 x4
Fig. 2 x1
Riff 1 x8
Fig. 1 x8
Riff 1 x4
Fig. 2 x1
Riff 1 x8
Fig. 3 x3
Fig. 4 x1
Fig. 3 x3
Fig. 4 x2
Fig. 4b x1
Fig. 4c x1
Fig. 3 x3
Fig. 4 x1
Riff 1 x8
Suggest correction
Give kudos to tab author, rate the tab!
1 2 3 4 5
comments
print report bad tab
guest
You may want to rate the tab now too:
select rating
Please do not post tabs as comments. Select "correction" instead!