Oops, an error
Loading. Please wait.

Kill The Light Of Christ tab

by Deicide
19 views 3 this week
no commentswrite comment
1 2 3 4 5
3 more votes to show rating
add to favorites
×
Save as Personal and add changes to this tab that will be seen only by you. Learn more ›
×
You can save this tab as Personal to edit and correct it or add notes. All changes will be seen only by you. Learn more »
launch autoscroll
font size
0
reset
how to read this tab
guitar tuner
edit
Autoscroll
slow
fast
+/-
esc
set tempo
stop
About this tab version
Notation measurements are used to describe the length of the note above the TAB to give a better understanding for the reader. The only difference, from the song is the solo is not entirely tabbed, only the intro. This specific tab is based off the studio recorded version (https://www.youtube.com/watch?v=4TbRP9ZgkBk). Was this info helpful? Yes No
[Intro] BPM is about 220

I hear four different guitar parts in the intro. 

There also seems to be a really present over tone, it's an Ab.
If desired, it can be played on the 4th fret of the 1st string in the I or II guitar 
part to bring it out more. It will confilct with the 
"meldoy" in the I guitar part, though.
 (Tremolo that s**t all the way through the intro.)

  GTR I (Comes in 4 beats after GTR II)
          W.   H  W  W      W   W  H    H  W.    
e||------------------------------4N------4N-3N--|
B||--------4N---4N-5N-2N-----4N-----4N----------|
G||---------------------------------------------|  Mute strings
D||---------------------------------------------|
A||---------------------------------------------|
D||---------------------------------------------|

(Comes in 2 beats after GTR III)
  GTR II
      (W)  H  H  (W)     (W)   W   W.
e||-------------------------------------|
B||-------------------------------------|
G||----4N---4N-6N-3N-------4N---4N--6N--|  Mute strings
D||-------------------------------------|
A||-------------------------------------|
D||-------------------------------------|
  
  
  GTR III
     Q Q(W)        Q Q Q Q W.   
e||-----------------------------|
B||O---------------------------O|
G||---8-------------8-----------|   On repeat, mute strings.
D||---8-9-6---------8-9-6-8-5---|
A||O--6-9-6---------6-9-6-8-5--O|
D||-----9-6N----------9-6-8-5N--|
 
  
  GTR IV (Can play power chords on non-tremolo notes, if desired)
     Q Q H   H  H  H    Q Q Q Q H   H  H
e||-----------------------------------------|
B||O---------------------------------------O|
G||-----------------------------------------|   On repeat, mute strings.
D||-----------------------------------------|
A||O--6----------6N------6--------------4N-O|
D||-----9-6N--6N----9N-----9-6-8-5N--6N-----|


[Verse]

 GTR I (Continue power chords, if desired)
     Q Q H   H  H  H    Q Q Q Q H   H  H
e|-----------------------------------------|
B|O---------------------------------------O|
G|-----------------------------------------|   
D|-----------------------------------------|
A|O--6----------6N------6--------------4N-O|
D|-----9-6N--6N----9N-----9-6-8-5N--6N-----|


  GTR II
     Q Q(W)        Q Q Q Q W.   
e|-----------------------------|
B|O---------------------------O|
G|---8-------------8-----------|   
D|---8-9-6---------8-9-6-8-5---|
A|O--6-9-6---------6-9-6-8-5--O|
D|-----9-6N----------9-6-8-5N--|


  GTR I&II
     Q Q(W)        Q Q Q Q W.
e|-----------------------------|
B|O---------------------------O|
G|-----------------------------|
D|---7-4-3---------7-4-3-5-2---|
A|O--7-4-3---------7-4-3-5-2--O|
D|---7-4-3N--------7-4-3-5-2N--|


[Chorus I]

  GTR I&II (All tremolo)
     H H H H   Q Q Q Q Q Q Q 
e|-----------------------------|
B|O---------------------------O|
G|-----------------------------|
D|-----------------------------|
A|O--5-8-3-6---5-8-3-6-4-7-2--O|
D|---5-8-3-6---5-8-3-6-4-7-2---|

  GTR I&II (No tremolo, just strum and hold)
     H H H H   W   Q Q Q
e|-----------------------------|
B|O---------------------------O|
G|-----------------------------|  (First time repeat twice,
D|-----------------------------|  Second time  is played,
A|O--5-8-3-6---5---5-8-3------O|  repeat this 4 times)  
D|---5-8-3-6---5---5-8-3-------|


[Verse]


 GTR I (Continue power chords, if desired)
     Q Q H   H  H  H    Q Q Q Q H   H  H
e|-----------------------------------------|
B|O---------------------------------------O|
G|-----------------------------------------|   
D|-----------------------------------------|
A|O--6----------6N------6--------------4N-O|
D|-----9-6N--6N----9N-----9-6-8-5N--6N-----|


  GTR II
     Q Q(W)        Q Q Q Q W.   
e|-----------------------------|
B|O---------------------------O|
G|---8-------------8-----------|   
D|---8-9-6---------8-9-6-8-5---|
A|O--6-9-6---------6-9-6-8-5--O|
D|-----9-6N----------9-6-8-5N--|


  GTR I&II
     Q Q(W)        Q Q Q Q W.
e|-----------------------------|
B|O---------------------------O|
G|-----------------------------|
D|---7-4-3---------7-4-3-5-2---|
A|O--7-4-3---------7-4-3-5-2--O|
D|---7-4-3N--------7-4-3-5-2N--|


[Chorus I]


  GTR I&II (All tremolo)
     H H H H   Q Q Q Q Q Q Q 
e|-----------------------------|
B|O---------------------------O|
G|-----------------------------|
D|-----------------------------|
A|O--5-8-3-6---5-8-3-6-4-7-2--O|
D|---5-8-3-6---5-8-3-6-4-7-2---|

  GTR I&II (No tremolo, just strum and hold)
     H H H H   W   Q Q Q
e|-----------------------------|
B|O---------------------------O|
G|-----------------------------|  (First time repeat twice,
D|-----------------------------|  Second time  is played,
A|O--5-8-3-6---5---5-8-3------O|  repeat this 4 times)  
D|---5-8-3-6---5---5-8-3-------|


[Bridge]

  GTR I&II
     Q Q Q Q Q Q Q Q Q Q Q Q W       E E E E E E E E               \
e|-------------------------------|---------------------|           |
B|-------------------------------|o-------------------o|           |
G|-------------------------------|---------------------|           |
D|---5---------------------------|---------------------|           |
A|-----5-4-3-5-1-3-0-1---0-------|o--2-2-2-2-4-2-5-2--o|           |
D|---------------------5---4-5---|---2-2-2-2-4-2-5-2---|           |
  N|---------------------------| PM|-----------------|             |
                                                                   |x2
                                                                   |
                                                                   |
                                        Do not play second time,   |
                                      go immediately to the solo   |
  GTR I&II                             |------Repeat 4x------| |
     Q Q Q Q Q Q Q Q Q Q Q Q Q Q Q Q       E E E E E E E E         |
e|-------------------------------------|---------------------|     |
B|-------------------------------------|o-------------------o|     |
G|-------------------------------------|---------------------|     |
D|---5---------------------------------|---------------------|     |
A|-----5-4-3-5-1-3-0-1---0-------------|o--2-2-2-2-4-2-5-2--o|     |
D|---------------------5---4-5-1-3-5---|---2-2-2-2-4-2-5-2---|     |
  N|--------------------------------|  PM|-----------------|       /


[Solo]

  GTR I
     W     W     H  H  H  H  (W)    E  E  E  E  W.
e|----------------------------------------------15b16~~|
B|---------------------------15bN---19p18p16h18--------|
G|------------------13-15-16---------------------------|
D|---12~~--15~~--16------------------------------------|
A|-----------------------------------------------------|
D|-----------------------------------------------------|

   I apologize, my ear isn't trained enough to hear the tapping part
   of the solo. Maybe somebody can figure it out and fill in? 
   
   I strongly recommend playing your own solo. Improvisation.
   Because this song has so many accidentals, notes that 
   are not in the key signature, it might be easy to go for it 
   and play whatever you feel like. I'm serious, just f**king do it.
   You may be surprised what comes out of your brain and hands.
   If you're unsure, just use the notes that are already in the song.
   Play them however you want.
  

 GTR II
     E E E E E E E E           E E E E E E H          \
e|---------------------|   |--------------------|     |
B|o-------------------o|   |--------------------|     |
G|---------------------|   |--------------------|     |
D|---------------------|x7 |--------------------|     |X2
A|o--2-2-2-2-4-2-5-2--o|   |---7-8-7-5-7-4------|     |
D|---2-2-2-2-4-2-5-2---|   |---7-8-7-5-7-4-5*---|     |
 PM|-----------------------------------------|        /


[Chorus II]

  GTR I&II
     H H H H W   Q Q Q
e|-----------------------|
B|-----------------------|
G|-----------------------|
D|-----------------------| x4
A|---5-8-3-6-5---5-8-3---|
D|---5-8-3-6-5---5-8-3---|


[Verse]

 GTR I (Continue power chords, if desired)
     Q Q H   H  H  H    Q Q Q Q H   H  H
e|-----------------------------------------|
B|O---------------------------------------O|
G|-----------------------------------------|   
D|-----------------------------------------|
A|O--6----------6N------6--------------4N-O|
D|-----9-6N--6N----9N-----9-6-8-5N--6N-----|


  GTR II
     Q Q(W)        Q Q Q Q W.   
e|-----------------------------|
B|O---------------------------O|
G|---8-------------8-----------|   
D|---8-9-6---------8-9-6-8-5---|
A|O--6-9-6---------6-9-6-8-5--O|
D|-----9-6N----------9-6-8-5N--|


  GTR I&II
     Q Q(W)        Q Q Q Q W.
e|-----------------------------|
B|O---------------------------O|
G|-----------------------------|
D|---7-4-3---------7-4-3-5-2---|
A|O--7-4-3---------7-4-3-5-2--O|
D|---7-4-3N--------7-4-3-5-2N--|


[Outro]

  GTR I&II (All tremolo)
     H H H H   Q Q Q Q Q Q Q 
e|-----------------------------|
B|O---------------------------O|
G|-----------------------------|
D|-----------------------------|
A|O--5-8-3-6---5-8-3-6-4-7-2--O|
D|---5-8-3-6---5-8-3-6-4-7-2---|

  GTR I&II (No tremolo, just strum and hold)
     H H H H   W   Q Q Q
e|-----------------------------|
B|O---------------------------O|
G|-----------------------------|
D|-----------------------------|x3
A|O--5-8-3-6---5---5-8-3------O|
D|---5-8-3-6---5---5-8-3-------|

  GTR I&II  
     H H H   Q Q Q
e|-----------------------------||
B|-----------------------------||
G|-----------------------------||
D|-----------------------------||
A|---5-8-3---6-8-5-------------||
D|---5-8-3---6-8-5-------------||
           |-------|
Tempo changes to about 144bpm for the last three notes. 

************************************
| |o  Repeat beginning 
| o|  Repeat end
| .   Adds half of the previous note's value
| S   Sixteenth note
| E   Eighth note
| Q   Quarter note
| H   Half note
| W   Whole note
|(W)  Double whole note (Yes, these are real in notation.)
| x   Dead note
| g   Grace note
|(n)  Ghost note
| h   Hammer-on
| p   Pull-off
| r   Release
| >   Accented note
| t   Tapping
| b   Bend
| br  Bend release
| pb  Pre-bend
| pbr Pre-bend release
| /   Slide up
| \   Slide down
| ~   Vibrato
| s   Slap
| P   Pop
| PM  Palm mute
| TR  Trill
| N   Tremolo
| *   Pitch Harmonic

************************************ 

            
            
Suggest correction
Creating personal tab
Creating personal tab
You can edit any tab online and save it as your Personal.

You can edit, replace or remove any tab part or add personal notes – all changes will be seen only by you.

Personal tabs can be accessed anytime from any device, even offline.
Learn more »
Give kudos to tab author, rate the tab!
1 2 3 4 5
comments
print report bad tab
guest
You may want to rate the tab now too:
select rating
Wanna post a correction for this tab? Suggest correction