Oops, an error
Loading. Please wait.

Lunatic Of Gods Creation Tab

version 2
version 2

Whole song

Interactive

1,268 views 1 this week
no commentswrite comment
1 2 3 4 5
please rate
add to favorites
launch autoscroll
font size
0
reset
how to read this tab
guitar tuner
Autoscroll
slow
fast
+/-
esc
set tempo
stop
Help us to improve Ultimate-Guitar.com Take our survey!
×
Author
Difficulty
intermediate
|ERIC
|--------------------|
|--------------------|
|--------------------|
|--------------------|
|--------------------|
|-000000000000000000-|
| ..................
|
|BRIAN
|--------------------|
|--------------------|
|--------------------|
|--------------------|
|-222222222222222222-|
|--------------------|
  ..................



 RIFF 1 MAIN x1

|---------------------------------|---------------------------------|
|---------------------------------|---------------------------------|
|---------------------------------|---------------------------------|
|-------------2-1-3-2---2-1-------|-------------2-1-3-2---2-1-------|
|-2-1---3-2-1---------3-----3-2-1-|-2-1---3-2-1---------3-----3-2-1-|
|-----2---------------------------|-----2---------------------------|
  . . . . . . . . . . . . . . . .   . . . . . . . . . . . . . . . .


|ERIC
|---------------------------------|---------------------------------|
|---------------------------------|---------------------------------|
|-------------9-810-9---9-8-------|-------------9-810-9---9-8-------|
|-9-8--10-9-8--------10----10-9-8-|-9-8--10-9-8--------10----10-9-8-|
|-----9---------------------------|-----9---------------------------|
|---------------------------------|---------------------------------|
| . . ... . .        ..    .. . .   . . ... . .        ..    .. . .
|
|BRIAN
|---------------------------------|---------------------------------|
|---------------------------------|---------------------------------|
|---------------------------------|---------------------------------|
|-------------2-1-3-2---2-1-------|-------------2-1-3-2---2-1-------|
|-2-1---3-2-1---------3-----3-2-1-|-2-1---3-2-1---------3-----3-2-1-|
|-----2---------------------------|-----2---------------------------|
  . . . . . . . . . . . . . . . .   . . . . . . . . . . . . . . . .



 RIFF 2 BREAK x4

|------------------------------------------------|
|------------------------------------------------|
|------------------------------------------------|
|-------------------------------------------10-9-|
|--------------------------------------------8-7-|
|-111111444444333333666666555555888888777777-----|
  ..........................................



 RIFF 3 VERSE x10

|--------------------------------------|
|--------------------------------------|
|--------------------------------------|
|--------------------------------------|
|-------------------------111111-------|
|-111111444444333333333333------444333-|
  ....................................



 RIFF 4 BRIDGE x2

|--------------------------|--------------------------|
|--------------------------|--------------------------|
|--------------------------|--------------------------|
|--------------------------|--------------------------|
|-------------333333222222-|--------------------------|
|-000000111111-------------|-000000111111444444333333-|
  ........................   ........................



|--------------------------|--------------------------|
|--------------------------|--------------------------|
|--------------------------|--------------------------|
|--------------------------|--------------------------|
|--------------------------|-------------333333222222-|
|-000000111111444444333333-|-000000111111-------------|
  ........................   ........................



 RIFF 1A CHORUS x1

|x3
|---------------------------------|---------------------------------|
|---------------------------------|---------------------------------|
|---------------------------------|---------------------------------|
|-3-2---2-1-----------------------|-3-2---2-1-----------------------|
|-----3-----3-2-1-3-2---2-1-------|-----3-----3-2-1-3-2---2-1-------|
|---------------------3-----3-2-1-|---------------------3-----3-2-1-|
  . . . . . . . . . . . . . . . .   . . . . . . . . . . . . . . . .


|ERIC x1
|---------------------------------|---------------------------------|
|---------------------------------|---------------------------------|
|---------------------------------|---------------------------------|
|-3-2---2-1-----------------------|-3-2---2-1-----------------------|
|-----3-----3-2-1-3-2---2-1-------|-----3-----3-2-1-3-2-----3-------|
|---------------------3-----3-2-1-|---------------------3-2-1-17\\\-|
| . . . . . . . . . . . . . . . .   . . . . . . . . . . . .  x
|
|BRIAN x1
|---------------------------------|---------------------------------|
|---------------------------------|---------------------------------|
|---------------------------------|---------------------------------|
|-3-2---2-1-----------------------|-3-2---2-1-----------------------|
|-----3-----3-2-1-3-2---2-1-------|-----3-----3-2-1-3-2-----3-------|
|---------------------3-----3-2-1-|---------------------3-2-1-------|
  . . . . . . . . . . . . . . . .   . . . . . . . . . . . .  x



 RIFF 2A BREAK x2

|ERIC
|------------------------------------------------|
|------------------------------------------------|
|------------------------------------------------|
|-------------------------------------------10-9-|
|--------------------------------------------8-7-|
|-111111444444333333666666555555888888777777-----|
| ..........................................
|
|BRIAN
|------------------------------------------------|
|------------------------------------------------|
|------------------------------------------------|
|-------------------------------------------10-9-|
|--------------------------------------------8-7-|
|------------------------------------------------|
                                                x



 RIFF 2 BREAK x4

 RIFF 3 VERSE x10

 RIFF 4 BRIDGE x2


 RIFF 1B CHORUS x1

|x3
|---------------------------------|---------------------------------|
|---------------------------------|---------------------------------|
|---------------------------------|---------------------------------|
|-------------2-1-3-2---2-1-------|-------------2-1-3-2---2-1-------|
|-2-1---3-2-1---------3-----3-2-1-|-2-1---3-2-1---------3-----3-2-1-|
|-----2---------------------------|-----2---------------------------|
  . . . . . . . . . . . . . . . .   . . . . . . . . . . . . . . . .


|x1
|---------------------------------|---------------------------------|
|---------------------------------|---------------------------------|
|---------------------------------|---------------------------------|
|-------------2-1-3-2---2-1-------|-------------2-1-3-2-------------|
|-2-1---3-2-1---------3-----3-2-1-|-2-1---3-2-1---------3-2-3-------|
|-----2---------------------------|-----2-------------------1-------|
  . . . . . . . . . . . . . . . .   . . . . . . . . . . . .  x
Suggest correction
What's this?
You can suggest a correction to this tab. Community and Mods will review your correction and vote to approve or reject it.
comments
We did not receive enough feedback on this tab! Please rate:
print report bad tab
1 2 3 4 5
guest
You may want to rate the tab now too:
select rating
Please do not post tabs as comments. Select "correction" instead!