Oops, an error
Loading. Please wait.

Oblivious To Evil Tab

version 1
version 1

Whole song

Interactive

3,468 views 9 this week
2 commentsread comments
1 2 3 4 5
accurate
x 1
add to favorites
launch autoscroll
font size
0
reset
how to read this tab
guitar tuner
Tab Pro tools
  • play this tab
  • loop segment
  • change instrument
  • show fretboard
  • metronome
Autoscroll
slow
fast
+/-
esc
set tempo
stop
                          DEICIDE - OBLIVIOUS TO EVIL
                            From the Album - DEICIDE 
                          Copyright - R/C RECORDS 1990 
                           Version 2.0 - Feb 22, 2002

Transcribed By: James Williams (Inverted) 

For Questions, Comments, Newest Version, Corrections or Request; 
Contact Inverted: at Inverted_one@hotmail.com 

Check Out Death8699.com, With More Transcriptions On It: 
http://www.death8699.com 

.  - palm mute           /  - slide up to 
\  - slide down to       ~  - vibrato 
h  - hammer on           b  - Bend 
p  - pull off            Suffixes for bend 
t  - tap                 f  - full bend    h - half bend 
ph - pinched harmonic    q  - quarter bend t - tap bend 
*  - see comment         ^  - Hold bend    r release bend 
x  - Stuccatto           ~  - vibrato bend 
,  - slight palm mute    () - ghost note, sustained note 
"  - tremolo note        <> - Trill 

Tunning "D#"G#"C#"F#"A#"d#" 

Intro                                                       1st time
|-------------------------------------------------------------------|
|-------------------------------------------------------------------|
|-------------------------------------------------------------------|GTR
|-------------------------------------------------------------------|I&II
|--2-3-2-3-2-3-2-3-2-3-2-3-2-3-2-3-2-3-2-3-2-3-2-3-2-3-2-3-2-3-2-3--|
|--0-1-0-1-0-1-0-1-0-1-0-1-0-1-0-1-0-1-0-1-0-1-0-1-0-1-0-1-0-1-0-1--|
   . . . . . . . . . . . . . . . . . . . . . . . . . . . . . . . .

                                                               2nd time
|----------------------------------------------------------------------|
|----------------------------------------------------------------------|
|----------------------------------------------------------------------|GTR I
|-------------------------------------------------------------------2--|
|--2-3-2-3-2-3-2-3-2-3-2-3-2-3-2-3-2-3-2-3-2-3-2-3-2-3-2-3-2-3------2--|
|--0-1-0-1-0-1-0-1-0-1-0-1-0-1-0-1-0-1-0-1-0-1-0-1-0-1-0-1-0-1-0000-0--|
|  . . . . . . . . . . . . . . . . . . . . . . . . . . . . . . ....    |
|                                                                      |
|----------------------------------------------------------------------|
|----------------------------------------------------------------------|
|--4-5-4-3-4-5-4-3-4-5-4-3-4-5-4-3-4-5-4-3-4-5-4-3-4-5-4-3-4-5---------|GTR II
|--2-3-2-1-2-3-2-1-2-3-2-1-2-3-2-1-2-3-2-1-2-3-2-1-2-3-2-1-2-3------2--|
|-------------------------------------------------------------------2--|
|--------------------------------------------------------------0000-0--|
   . . . . . . . . . . . . . . . . . . . . . . . . . . . . . . .... 

JOIN US!!!

Riff 1
|------------------------------------------------------|
|------------------------------------------------------|
|------------------------------------------------------|
|--------3------------5/4/3--------3-------------------|
|--------3------------5/4/3--------3------9-7-6--------|
|--0-0-0-1--0-0-0-0-0-3/2/1--0-0-0-1--0-0-------7-6-4--|
   . . .    . . . . .        . . .    . . . . . . . .

Riff 1-A
|------------------------------------------------------|
|------------------------------------------------------|
|------------------------------------------------------|
|--------3x-----------5-4-3x-------3x------------------|
|--------3x-----------5-4-3x-------3x-----9-7-6--------|
|--------1x-----------3-2-1x-------1x-0-0-------7-6-4--|
                                      . . . . . . . .
Riff 2
|-----------------------------|
|-----------------------------|
|-----------------------------|
|-----------------------------|
|--2-2-2-2-2-2--997766--------|
|--0-0-0-0-0-0--------776644--|
   . . . . . .  ,,,,,,,,,,,,

Play Riff 1 (6 times)
     Riff 2 (4 times)
     Riff 1 (4 times)

Riff 3                                     x4
|--------------------------------------------|
|--------------------------------------------|
|--------------------------------------------|
|-----------------------------------------3--|
|--------------------3--------------------1--|
|--3-2-0-2-1-0-3-2-0-1--3-2-0-2-1-0-3-2-0----|
   . . . . . . . . .    . . . . . . . . .

Riff 4 (Solo Riff 1)                                 x4
|------------------------------------------------------|
|------------------------------------------------------|
|------------------------------------------------------|
|------------------------------------------------------|
|----------997766--------------997766-------------7\8--|
|--00000000------77664400000000------7766440000-0-5\6--|
   ,,,,,,,,,,,,,,,,,,,,,,,,,,,,,,,,,,,,,,,,,,,, .

Riff 5 (Solo Riff 2)                     x8
|------------------------------------------|
|------------------------------------------|
|------------------------------------------|
|-------------------------------------7-8--|
|-----------------5-4-----------------5-6--|
|--00003322110000-3-3--00003322110000------|
   ,,,,,,,,,,,,,,      ,,,,,,,,,,,,,,

Riff 5-A                                   x1
|--------------------------------------------|
|--------------------------------------------|
|--------------------------------------------|
|---------------------------------------7-8--|
|-------5-4-3------5-4-------5-4-3------5-6--|
|--0000-3-2-1-0000-3-2--0000-3-2-1-0000------|
   ,,,, . . . ,,,,      ,,,, . . . ,,,,

Repeat Riff 1 (6 times)
       Riff 2 (4 times)
       Riff 1 (3 times)

End                         x1
|-----------------------------|
|-----------------------------|
|-----------------------------|
|--------3------------5/4-3x--|
|--------3------------5/4-3x--|
|--0-0-0-1--0-0-0-0-0-3/2-1x--|
   . . .    . . . . . 

Check out my other tabs By Deicide, Obituary, Catastrophic,
Six Feet Under, Hypocrisy and Grave.
comments
We did not receive enough feedback on this tab! Please rate:
print report bad tab
1 2 3 4 5
2 comments total.
-1 reply
Metal666Blood wrote on January 26 2009, 11:55 pm

ITS FUCKIN WRONG THERE ALLL FUCKING WRONG!!!!!!!!!!!!!!!!!!!!!!!!!!!!!!!! AHHHHHHHHHHHHHHHHHHHH!!!!!! ive looked at all of the deicide tabs and there all wrong sorry. you got a couple riffs right but the main verse is wrong,

0 reply
Metal666Blood wrote on January 26 2009, 11:58 pm

you should kill yourself

I want to post or [tab]
guest
You may want to rate the tab now too:
select rating
Please do not post tabs as comments. Select "correction" instead!