Oops, an error
Loading. Please wait.

Repent To Die Tab

version 1
version 1

Whole song

Interactive

1,347 views 3 this week
no commentswrite comment
1 2 3 4 5
accurate
x 1
add to favorites
launch autoscroll
font size
0
reset
how to read this tab
guitar tuner
Tab Pro tools
  • play this tab
  • loop segment
  • change instrument
  • show fretboard
  • metronome
Autoscroll
slow
fast
+/-
esc
set tempo
stop
=================================================================================================
Song: Repent to Die
Artist: Deicide
Album: Legion (1992)

Tabbed by Chris Rezendes (dudemcrude@yahoo.com)

Tuning: Standard

Notation Key
v: vibrato
t: tremolo bar
^: bend
.: palm mute
~: trill
p: pull-off
h: hammer-on
x: ghost note
/: slide up
\: slide down

Comments: Awesome song.  I think this tab came out awesome.  If you spot any mistakes, you can e-mail me the corrections, or just e-mail me and I'll see what I can do.  Whatever.  
=================================================================================================

Riff 1 x12
e|-------------|-------------|-------------|-------------|
B|-------------|-------------|-------------|-------------|
G|-------------|-------------|-------------|-------------|
D|-------------|-------------|-------------|-------------|
A|--3-3p2------|-------------|----2p1------|----3p2------|
E|--------310--|--0-6p5-310--|--0-----310--|--0-----310--|

Riff 2 x2
e|-----------------------------------|
B|-----------------------------------|
G|-----------------------------------|
D|------2h5-----1h4-----2h5-----4h7--|
A|--222-----222-----222-----222------|
E|-----------------------------------|

Riff 3 x3
e|---------------|
B|---------------|
G|----------4h7--|
D|------3h6------|
A|--2h5----------|
E|---------------|

Riff 4 x6 (verse)
e|-------------------------|----------------------------|
B|-------------------------|----------------------------|
G|-------------------------|----------------------------|
D|-------------------------|----------------------------|
A|------3-----2------------|------3-----2---------------|
E|--0-0---0-0---0-0-0-3-2--|--0-0---0-0---0-0-0-302010--|
    . . . . . . . . . . .     . . . . . . . . . ......

Repeat Riff 1 x8

Fig. 1 x2
e|------------------------------|------------------------------|
B|------------------------------|------------------------------|
G|------------------------------|------------------------------|
D|------------------------------|------------------------------|
A|--2------3------4-------------|--2------3------4------4-3-6--|
E|--0-0120-1-0230-2-0230430143--|--0-0120-1-0230-2-2030-2-1-4--|

e|------------------------------|------------------------------|
B|------------------------------|------------------------------|
G|------------------------------|------------------------------|
D|------------------------------|------------------------------|
A|--5------3------4--------3-5--|--2------3------4-------------|
E|--3-0120-1-0230-2-023043-1-3--|--0-0120-1-0230-2-0230430143--|

Fig. 2 x2 (Born to be dead, repent to die, ignorance looms in the unconscious mind...)
e|-------------------------------|-------------------------------|
B|-------------------------------|-------------------------------|
G|-------------------------------|-------------------------------|
D|-------------------------------|-------------------------------|
A|--2------3------4------3-------|--2------5------4------3-------|
E|--0-0120-1-0230-2-0120-1-0230--|--0-0120-3-0230-2-0120-1-0230--|

Riff 5 x4
e|-------------------------------|
B|-------------------------------|
G|-------------------------------|
D|-------------------------------|
A|-------------------------------|
E|--0-0120-1-0230-2-0120-1-0230--|
    . .... . .... . .... . ....

Fig. 1b x1
e|------------------------------------|------------------------------|
B|------------------------------------|------------------------------|
G|------------------------------------|------------------------------|
D|------------------------------------|------------------------------|
A|--4-3-6-5------3------4-------------|--2------3------4--------3-5--|
E|--2-1-4-3-0120-1-0230-2-0230430143--|--0-0120-1-0230-2-023043-1-3--|

e|------------------------------|------------------------------|
B|------------------------------|------------------------------|
G|------------------------------|------------------------------|
D|------------------------------|------------------------------|
A|--2------3------4------4-3-6--|--5------3------4-------------|
E|--0-0120-1-0230-2-2030-2-1-4--|--3-0120-1-0230-2-0230430143--|

Riff 6 x1 (Afraid of what lies after death...)
e|-----------------------------------|-----------------------------------|
B|-----------------------------------|-----------------------------------|
G|-----------------------------------|----------4h7---------4h7----------|
D|------2h5-----1h4-----2h5-----4h7--|------3h6---------3h6---------3h6--|
A|--222-----222-----222-----222------|--2h5---------2h5---------2h5------|
E|-----------------------------------|-----------------------------------|

e|-----------------------------------|-----------------------------------|
B|-----------------------------------|-----------------------------------|
G|-----------------------------------|-----------------------------------|
D|----------3h6---------3h6----------|----------5h8---------5h8----------|
A|------2h5---------2h5---------2h5--|------4h7---------4h7---------4h7--|
E|--1h4---------1h4---------1h4------|--3h6---------3h6---------3h6------|

e|------------------------------------|--------------|
B|------------------------------------|--------------|
G|------------------------------------|--------------|
D|----------5h8---------5h8-----------|-5-2-4-1-3-0--|
A|------4h7---------4h7----------4h7--|--------------|
E|--3h6---------3h6----------3h6------|--------------|

e|-----------------------------------|-----------------------------------|
B|-----------------------------------|-----------------------------------|
G|-----------------------------------|-----------------------------------|
D|----------3h6---------3h6----------|----------3h6---------3h6----------|
A|------2h5---------2h5---------2h5--|------2h5---------2h5---------2h5--|
E|--1h4---------1h4---------1h4------|--1h4---------1h4---------1h4------|

e|-----------------------------------|-----------------------------------|
B|-----------------------------------|-----------------------------------|
G|-----------------------------------|-----------------------------------|
D|----------5h8---------5h8----------|----------5h8---------5h8----------|
A|------4h7---------4h7---------4h7--|------4h7---------4h7---------4h7--|
E|--3h6---------3h6---------3h6------|--3h6---------3h6---------3h6------|

e|--------------------------|
B|--------------------------|
G|--------------------------|
D|--------------------------|
A|--5-2-4-1-3-0-2---1----3--|
E|----------------4---3--1--|

Riff 7 x6
e|-------------------------------|
B|--5-6--------------------------|
G|------4-5-----2-3--------------|
D|----------2-3-----2-3----------|
A|----------------------2-3------|
E|--------------------------2-3--|

Fill 1 x1                 
e|---------------|
B|---------------|
G|---------------|
D|---------------|
A|--3-3-----2-2--|
E|------0-0------| 

Repeat Riff 7 x4
Repeat Fill 1 x1

Riff 8 x1
e|-------------------------------|-------------------------------|
B|-------------------------------|-------------------------------|
G|--------------------2-----4-5--|-------------------------------|
D|--2h3-3p2-----2-3-5---3-5------|--2h3-3p2-----3-2--------------|
A|----------2h3------------------|----------2h3-----2-3-5-3------|
E|-------------------------------|--------------------------3-2--|

Riff 8a x1
e|-------------------------------|-------------------------|
B|-------------------------------|-------------------------|
G|--------------------2-----4-5--|-------------------------|
D|--2h3-3p2-----2-3-5---3-5------|--2h3-3p2----------------|
A|----------2h3------------------|----------2h3--5-5--4-4--|
E|-------------------------------|---------------3-3--2-2--|

Repeat Riff 8 x8
Repeat Riff 8a x1
Repeat Riff 4 x6
Repeat Riff 1 x8
Repeat Riff 2 x6
Repeat Riff 3 x3
comments
We did not receive enough feedback on this tab! Please rate:
print report bad tab
1 2 3 4 5
I want to post or [tab]
guest
You may want to rate the tab now too:
select rating
Please do not post tabs as comments. Select "correction" instead!