Oops, an error
Loading. Please wait.

Sacrificial Suicide Tab

version 1
version 1

Whole song

Interactive

5,418 views 1 this week
no commentswrite comment
1 2 3 4 5
accurate
x 4
add to favorites
launch autoscroll
font size
0
reset
how to read this tab
guitar tuner
Autoscroll
slow
fast
+/-
esc
set tempo
stop
Help us to improve Ultimate-Guitar.com Take our survey!
×
                        DEICIDE - SACRIFICIAL SUICIDE
                           From the Album: DEICIDE 
                         Copyright: R/C RECORDS 1990 
                          Version 1.0 - Feb 23, 2002

Transcribed By: James Williams (Inverted) 

For Questions, Comments, Newest Version, Corrections or Request; 
Contact Inverted: at Inverted_one@hotmail.com 

Check Out Death8699.com, With More Transcriptions On It: 
http://www.death8699.com 

.  - palm mute           /  - slide up to 
\  - slide down to       ~  - vibrato 
h  - hammer on           b  - Bend 
p  - pull off            Suffixes for bend 
t  - tap                 f  - full bend    h - half bend 
ph - pinched harmonic    q  - quarter bend t - tap bend 
*  - see comment         ^  - Hold bend    r release bend 
x  - Stuccatto           ~  - vibrato bend 
,  - slight palm mute    () - ghost note, sustained note 
"  - tremolo note        <> - Trill 

Tunning "D#"G#"C#"F#"A#"d#" 

Intro
|--------------------------------------------|
|--------------------------------------------|
|--------------------------------------------|
|--------------------------------------------|
|--------------------------------------------|
|--0000000000000000000000000000000000000000--|

*Note: For Riff 1 and Riff 2 repeat the first measure 3
       times and the second measure 1 time.

Riff 1
|---------------------------|--------------------------|
|---------------------------|--------------------------|
|---------------------------|--------------------------|
|------9------------9-----9-|--------------------------|
|------7-----997766-7-----7-|-----8-----8-----8-----8--|
|--000---000----------000---|-000-6-000-6-000-6-000-6--|
   ...   ... ,,,,,,   ...     ...   ...   ...   ...

Riff 2
|--------------------------|---------------------------|
|--------------------------|---------------------------|
|--------------------------|---------------------------|
|--------------------------|---------------------------|
|--2-----2-----2-----2-2-2-|-2-----2-----997766--------|
|--0-000-0-000-0-000-0-0-0-|-0-000-0-000-------997766--|
   . ... . ... . ... . . .   . ... . ... ,,,,,,,,,,,,

Riff 3
|--------------------------------------------|
|--------------------------------------------|
|--------------------------------------------|
|------9\10-9-----7\8-7-----9\10-9-7--6\7-6--|
|------7\-8-7-----5\6-5-----7\-8-7-5--4\5-4--|
|--000--------000-------000------------------|
   ...        ...       ...

*Note: For Riff 4 repeat the first measure 2 times and the 
       second measure 1 time. For Riff 5 repeat the first
       measure 3 times and the second measure 1 time.

Riff 4
|----------------------------|-----------------------------|
|----------------------------|-----------------------------|
|----------------------------|-----------------------------|
|-------------11-9-8---------|------------11-9-8------8----|
|--2-----2-----9-7-6-11-9-8--|-2-----2-----9-7-6-11-9-8----|
|--0-000-0-000--------9-7-6--|-0-000-0-000--------9-7-6----|
   . ... . ... . . .  . . .   . ... . ...  . . .  . .

Riff 5 (Also solo riff)
|-----------------------|----------------------|
|-----------------------|----------------------|
|-----------------------|----------------------|
|-----------------------|-------------8-----7--|
|----------997766-------|-------------8-----7--|
|--00000000------997766-|-00000000000-6-000-5--|
           ,,,,,,,,,,,,                 ...

Riff 6 (Chorus)
|---------------------------------------------------------|
|---------------------------------------------------------|
|---------------------------------------------------------|
|--5--3--2-------5--3--2-------5--3--2-----------8-----7--|
|--5--3--2-------5--3--2-------5--3--2-----------8-----7--|
|--3--1--0-0-0-0-3--1--0-0-0-0-3--1--0-0-0-0-000-6-000-5--|
           . . .         . . .         . . . ...   ...

End Riff
|---------------------|
|---------------------|
|---------------------|
|------8-----7----2x--|
|------8-----7----2x--|
|--000-6-000-5----0x--|

Have fun!

Check out my other tabs by Deicide, Obituary, Catastrophic,
Six Feet Under, Hypocrisy and Grave.
Suggest correction
comments
print report bad tab
guest
You may want to rate the tab now too:
select rating
Please do not post tabs as comments. Select "correction" instead!