Oops, an error
Loading. Please wait.

To Hell With God bass

by Deicide
884 views 1 this week
no commentswrite comment
1 2 3 4 5
3 more votes to show rating
add to favorites
×
Save as Personal and add changes to this tab that will be seen only by you. Learn more ›
×
You can save this tab as Personal to edit and correct it or add notes. All changes will be seen only by you. Learn more »
launch autoscroll
font size
0
reset
guitar tuner
edit
Autoscroll
slow
fast
+/-
esc
set tempo
stop
To Hell with God Tab
Legend:
R= rest
h= hammer on
p=pull off
/= slide

Intro
Gb ------------------------------------------------------------------------------|
Db ------------------------------------------------------------------------------|
Ab ------------------------------------------------------------------------------|
Eb -6-5r----6-5-5-4-4-3----3-2-2-1--6-5---6-5-5-4-4-3---3-2-2-1------------------|

------------------------------------------|
------------------------------------------|
------------------------------------------|
--66665-66--55--44443-44--33--------------|

Verse
-----------------------------------------------------------------|
-----------------------------------------------------------------|
-----------------------------------------------------------------|
--000000000000655443000000000000655465---------------------------|

Pre Chorus
---------------------------------------------------------------------------|
---------------------------------------------------------------------------|
---------------------------------------------------------------------------|
-666666666-3-555555555-7-666666666-3-666666-4-3----------------------------|

---------------------------------------------------------------------------|
---------------------------------------------------------------------------|
----------------------------------------------------------666666666--------|
-666666666-3-555555555-7-666666666-3---------------------------------------|

Chorus
------------------------------------------------------------------------------------|
------------------------------------------------------------------------------------|
------------------------------------------------------------------------------------|
--6--6-6-6-6h7p6-6-6--6-6-9-9-9--5--5-5-5-5h6p5-5-5--5-5--4--3----------------------|

-------------------------------------------------------------------------------------|
-------------------------------------------------------------------------------------|
--------------------------------------------7--7-7-7-7h8p7-7-7-10--10-10-------------|
--6--6-6-6-6h7p6-6-6--6-6-9-9-9------------------------------------------------------|

Prelude

--------------------------------------------------------------|
--------------------------------------------------------------|
--------------------------------------------------------------|
--666333555222222222222222555222444111111111111111--24521341--|

Solo Riff

-----------------------------------------------------------------|
-----------------------------------------------------------------|
-----------------------------------------------------------------|
--000000000000655443000000000000655465---------------------------|

------------------------------------------------------------------------------------|
------------------------------------------------------------------------------------|
------------------------------------------------------------------------------------|
--6--6-6-6-6h7p6-6-6--6-6-9-9-9--5--5-5-5-5h6p5-5-5--5-5--4--3----------------------|

-------------------------------------------------------------------------------------|
-------------------------------------------------------------------------------------|
--------------------------------------------7--7-7-7-7h8p7-7-7-10--10-10-------------|
--6--6-6-6-6h7p6-6-6--6-6-9-9-9------------------------------------------------------|

Song Order:
Intro
Verse
Pre
Chorus
Verse
Pre
Chorus
Prelude
Solo riff
Verse
Pre
Chorus (Also the outro)

            
            
Suggest correction
Creating personal tab
Creating personal tab
You can edit any tab online and save it as your Personal.

You can edit, replace or remove any tab part or add personal notes – all changes will be seen only by you.

Personal tabs can be accessed anytime from any device, even offline.
Learn more »
Give kudos to tab author, rate the tab!
1 2 3 4 5
comments
print report bad tab
guest
You may want to rate the tab now too:
select rating
Wanna post a correction for this tab? Suggest correction