Oops, an error
Loading. Please wait.

When Heaven Burns tab

version 2
version 2

Whole song

Interactive

by Deicide
472 views 1 this week
no commentswrite comment
1 2 3 4 5
3 more votes to show rating
add to favorites
×
Save as Personal and add changes to this tab that will be seen only by you. Learn more ›
×
You can save this tab as Personal to edit and correct it or add notes. All changes will be seen only by you. Learn more »
launch autoscroll
font size
0
reset
how to read this tab
guitar tuner
edit
Autoscroll
slow
fast
+/-
esc
set tempo
stop
#----------------------------------PLEASE NOTE---------------------------------#
#This file is the author's own work and represents their interpretation of the #
#song. You may only use this file for private study, scholarship, or research. #
#------------------------------------------------------------------------------#
                                WHEN HEAVEN BURNS
                             As recorded by Deicide
                   (From the 2004 Album SCARS OF THE CRUCIFIX)

Words by Glen Benton, Music by Deicide
Arranged by Deicide
Transcribed by John Nixon (abacinate_fmf@att.net)

Gtr I (Eb Ab Db Gb Bb Eb) - 'Left Speaker'
Gtr II (Eb Ab Db Gb Bb Eb) - 'Right Speaker'

I suggest that you download the Powertab version of this tab, this text tab is
just the basic ASCII export and only for those who want this tab but don't
have Powertab.

 Intro
  Fast Death Metal Q=228
  $$
 4/4
  Gtrs I, II
  S S S S S S S S S S S S S S S S   S S S S S S S S S S S S S S S S
|---------------------------------|----------------------------------|
|---------------------------------|----------------------------------|
|---------------------------------|----------------------------------|
|-9-9-9-9-9-9-9-9-8-8-8-8-8-8-8-8-|-8-8-8-8-8-8-8-8-7-7-7-7-7-7-7-7--|
|-7-7-7-7-7-7-7-7-7-7-7-7-7-7-7-7-|-6-6-6-6-6-6-6-6-6-6-6-6-6-6-6-6--|
|---------------------------------|----------------------------------|
  S S S S S S S S S S S S S S S S   S S S S S S S S S S S S S S S S


  S S S S S S S S S S S S S S S S   S S S S S S S S S S S S S S S S
|---------------------------------|-----------------------------------|
|---------------------------------|-----------------------------------|
|---------------------------------|-----------------------------------|
|-7-7-7-7-7-7-7-7-6-6-6-6-6-6-6-6-|-6-6-6-6-6-6-6-6-5-5-5-5-5-5-5-5---|
|-5-5-5-5-5-5-5-5-5-5-5-5-5-5-5-5-|-4-4-4-4-4-4-4-4-4-4-4-4-4-4-4-4---|
|---------------------------------|-----------------------------------|
  S S S S S S S S S S S S S S S S   S S S S S S S S S S S S S S S S


  S S S S S S S S S S S S S S S S   S S S S S S S S S S S S S S S S
|---------------------------------|-----------------------------------|
|---------------------------------|-----------------------------------|
|---------------------------------|-----------------------------------|
|-5-5-5-5-5-5-5-5-4-4-4-4-4-4-4-4-|-4-4-4-4-4-4-4-4-3-3-3-3-3-3-3-3---|
|-7-7-7-7-7-7-7-7-7-7-7-7-7-7-7-7-|-6-6-6-6-6-6-6-6-6-6-6-6-6-6-6-6---|
|---------------------------------|-----------------------------------|
  S S S S S S S S S S S S S S S S   S S S S S S S S S S S S S S S S


  S S S S S S S S S S S S S S S S   S S S S S S S S S S S S S S S S
|---------------------------------|-----------------------------------|
|---------------------------------|-----------------------------------|
|---------------------------------|-----------------------------------|
|-3-3-3-3-3-3-3-3-2-2-2-2-2-2-2-2-|-2-2-2-2-2-2-2-2-1-1-1-1-1-1-1-1---|
|-5-5-5-5-5-5-5-5-5-5-5-5-5-5-5-5-|-4-4-4-4-4-4-4-4-4-4-4-4-4-4-4-4---|
|---------------------------------|-----------------------------------|
  S S S S S S S S S S S S S S S S   S S S S S S S S S S S S S S S S


   Verse
    Slower Q=220
    S S S S S S S S S S S S S S S S   S S S S S S S S S S S S S S S S   4x
||----------------------------------|-----------------------------------||
||o---------------------------------|----------------------------------o||
||----------------------------------|-----------------------------------||
||--5-5-5-5-5-5-5-5-5-5-5-5-7-7-8-8-|-4-4-4-4-4-4-4-4-4-4-4-4-7-7-8-8---||
||o-3-3-3-3-3-3-3-3-3-3-3-3-5-5-6-6-|-2-2-2-2-2-2-2-2-2-2-2-2-5-5-6-6--o||
||----------------------------------|-----------------------------------||
    S S S S S S S S S S S S S S S S   S S S S S S S S S S S S S S S S


 Bridge
  Faster Q=228
 4/4
  S S S S S S S S S S S S S S S S   S S S S S S S S S S S S S S S S
|---------------------------------|----------------------------------|
|---------------------------------|----------------------------------|
|---------------------------------|----------------------------------|
|---------------------------------|----------------------------------|
|-9-9-9-9-9-9-9-9-8-8-8-8-8-8-8-8-|-8-8-8-8-8-8-8-8-7-7-7-7-7-7-7-7--|
|-7-7-7-7-7-7-7-7-7-7-7-7-7-7-7-7-|-6-6-6-6-6-6-6-6-6-6-6-6-6-6-6-6--|
  S S S S S S S S S S S S S S S S   S S S S S S S S S S S S S S S S


  S S S S S S S S S S S S S S S S   S S S S S S S S S S S S S S S S
|---------------------------------|-----------------------------------|
|---------------------------------|-----------------------------------|
|---------------------------------|-----------------------------------|
|---------------------------------|-----------------------------------|
|-7-7-7-7-7-7-7-7-6-6-6-6-6-6-6-6-|-6-6-6-6-6-6-6-6-5-5-5-5-5-5-5-5---|
|-5-5-5-5-5-5-5-5-5-5-5-5-5-5-5-5-|-4-4-4-4-4-4-4-4-4-4-4-4-4-4-4-4---|
  S S S S S S S S S S S S S S S S   S S S S S S S S S S S S S S S S


  S S S S S S S S S S S S S S S S   S S S S S S S S S S S S S S S S
|---------------------------------|-----------------------------------|
|---------------------------------|-----------------------------------|
|---------------------------------|-----------------------------------|
|---------------------------------|-----------------------------------|
|-5-5-5-5-5-5-5-5-4-4-4-4-4-4-4-4-|-4-4-4-4-4-4-4-4-3-3-3-3-3-3-3-3---|
|-7-7-7-7-7-7-7-7-7-7-7-7-7-7-7-7-|-6-6-6-6-6-6-6-6-6-6-6-6-6-6-6-6---|
  S S S S S S S S S S S S S S S S   S S S S S S S S S S S S S S S S


  S S S S S S S S S S S S S S S S   S S S S S S S S S S S S S S S S
|---------------------------------|-----------------------------------|
|---------------------------------|-----------------------------------|
|---------------------------------|-----------------------------------|
|---------------------------------|-----------------------------------|
|-3-3-3-3-3-3-3-3-2-2-2-2-2-2-2-2-|-2-2-2-2-2-2-2-2-1-1-1-1-1-1-1-1---|
|-5-5-5-5-5-5-5-5-5-5-5-5-5-5-5-5-|-4-4-4-4-4-4-4-4-4-4-4-4-4-4-4-4---|
  S S S S S S S S S S S S S S S S   S S S S S S S S S S S S S S S S


   Verse
    Slower Q=220
    S S S S S S S S S S S S S S S S   S S S S S S S S S S S S S S S S   4x
||----------------------------------|-----------------------------------||
||o---------------------------------|----------------------------------o||
||----------------------------------|-----------------------------------||
||----------------------------------|-----------------------------------||
||o-5-5-5-5-5-5-5-5-5-5-5-5-7-7-8-8-|-4-4-4-4-4-4-4-4-4-4-4-4-7-7-8-8--o||
||--3-3-3-3-3-3-3-3-3-3-3-3-5-5-6-6-|-2-2-2-2-2-2-2-2-2-2-2-2-5-5-6-6---||
    S S S S S S S S S S S S S S S S   S S S S S S S S S S S S S S S S


   Bridge
    Slower Q=207
                                        To Dbl. Coda
   12/8
    PM--|   PM|   PM|           PM|   PM  PM
    E E E E E E E E E E E E   E E E E E E E E E E E E
||--------------------------|--------------------------||
||o-------------------------|-------------------------o||
||--------------------------|--------------------------||
||--------------------------|--------------------------||
||o-------5-----4-----5-5-5-|-2-----5---4---3-4-6s5s6-o||
||--0-0-0-3-0-0-2-0-0-3-3-3-|-0-0-0-3-0-2-0-1-2-4s3s4--||


   Verse
    $
    PM--|   PM|   PM|           PM|   PM  PM
    E E E E E E E E E E E E   E E E E E E E E E E E E   4x
||--------------------------|---------------------------||
||o-------------------------|--------------------------o||
||--------------------------|---------------------------||
||--------------------------|---------------------------||
||o-------5-----4-----5-5-5-|-2-----5---4---3-4-6s5s6--o||
||--0-0-0-3-0-0-2-0-0-3-3-3-|-0-0-0-3-0-2-0-1-2-4s3s4---||


   Chorus
    PM|                 PM|   PM|
    E E S S S S S S S S E E E E E E
||----------------------------------|
||o---------------------------------|
||----------------------------------|
||----------------------------------|
||o-----5-5-5-5-5-5-5-5-----4-----3-|
||--0-3-----------------0-2---0-1---|


  PM|   PM--------------------------------|
  E E E S S S S S S S S S S S S S S S S S S
|--------------------------------------------||
|-------------------------------------------o||
|--------------------------------------------||
|--------------------------------------------||
|-----2-------------------------------------o||
|-0-1---0-0-0-0-0-0-0-0-0-0-0-0-0-0-0-0-0-0--||


  PM|                 PM|   PM|     PM|   PM--------------------------------|
  E E S S S S S S S S E E E E E E   E E E S S S S S S S S S S S S S S S S S S
|---------------------------------|--------------------------------------------|
|---------------------------------|--------------------------------------------|
|---------------------------------|--------------------------------------------|
|---------------------------------|--------------------------------------------|
|-----5-5-5-5-5-5-5-5-----4-----3-|-----2--------------------------------------|
|-0-3-----------------0-2---0-1---|-0-1---0-0-0-0-0-0-0-0-0-0-0-0-0-0-0-0-0-0--|
|
| Gtr II
| PM|                 PM|   PM|     PM|   PM--------------------------------|
| E E S S S S S S S S E E E E E E   E E E S S S S S S S S S S S S S S S S S S
|---------------------------------|--------------------------------------------|
|---------------------------------|--------------------------------------------|
|---------------------------------|--------------------------------------------|
|-----5-5-5-5-5-5-5-5-------------|--------------------------------------------|
|-------------------------4-----3-|-----2--------------------------------------|
|-0-3-----------------0-2---0-1---|-0-1---0-0-0-0-0-0-0-0-0-0-0-0-0-0-0-0-0-0--|


  PM|                 PM|   PM|     PM|   PM--------------------------------|
  E E S S S S S S S S E E E E E E   E E E S S S S S S S S S S S S S S S S S S
|---------------------------------|--------------------------------------------|
|---------------------------------|--------------------------------------------|
|---------------------------------|--------------------------------------------|
|---------------------------------|--------------------------------------------|
|-----5-5-5-5-5-5-5-5-----4-----3-|-----2--------------------------------------|
|-0-3-----------------0-2---0-1---|-0-1---0-0-0-0-0-0-0-0-0-0-0-0-0-0-0-0-0-0--|
|
| PM|                 PM|   PM|     PM|   PM--------------------------------|
| E E S S S S S S S S E E E E E E   E E E S S S S S S S S S S S S S S S S S S
|---------------------------------|--------------------------------------------|
|---------------------------------|--------------------------------------------|
|---------------------------------|--------------------------------------------|
|-----7-7-7-7-7-7-7-7-----6-----5-|-----4--------------------------------------|
|-2-5-----------------2-4---2-3---|-2-3----------------------------------------|
|---------------------------------|-------0-0-0-0-0-0-0-0-0-0-0-0-0-0-0-0-0-0--|


 Solo Rythym
  Gtrs I, II
  PM|                 PM-----------
  E E S S S S S S S S E E E E E E
|---------------------------------|
|---------------------------------|
|---------------------------------|
|---------------------------------|
|-----2-2-2-2-2-2-2-2-----2-----2-|
|-0-3-----------------0-3---0-3---|


 ---|
  E E S S S S S S S S S S S S S S S S S S S S
|---------------------------------------------|
|---------------------------------------------|
|---------------------------------------------|
|---------------------------------------------|
|-----1-1-1-1-1-1-1-1-1-1-1-1-1-1-1-1-1-1-1-1-|
|-0-3-----------------------------------------|


  PM|                 PM-----------
  E E S S S S S S S S E E E E E E
|---------------------------------|
|---------------------------------|
|---------------------------------|
|---------------------------------|
|-----2-2-2-2-2-2-2-2-----2-----2-|
|-0-3-----------------0-3---0-3---|


 ---|
  E E S S S S S S S S S S S S S S S S S S S S
|---------------------------------------------|
|---------------------------------------------|
|---------------------------------------------|
|---------------------------------------------|
|-----5-5-5-5-5-5-5-5-5-5-5-5-5-5-5-5-5-5-5-5-|
|-0-3-----------------------------------------|


  PM|                 PM-----------
  E E S S S S S S S S E E E E E E
|---------------------------------|
|---------------------------------|
|---------------------------------|
|---------------------------------|
|-----2-2-2-2-2-2-2-2-----2-----2-|
|-0-3-----------------0-3---0-3---|
|
| Gtr II
| PM|                 PM-----------
| E E S S S S S S S S E E E E E E
|---------------------------------|
|---------------------------------|
|---------------------------------|
|-----4-4-4-4-4-4-4-4-----4-----4-|
|-2-5-----------------2-5---2-5---|
|---------------------------------|


 ---|
  E E S S S S S S S S S S S S S S S S S S S S
|---------------------------------------------|
|---------------------------------------------|
|---------------------------------------------|
|---------------------------------------------|
|-----1-1-1-1-1-1-1-1-1-1-1-1-1-1-1-1-1-1-1-1-|
|-0-3-----------------------------------------|
|
|---|
| E E S S S S S S S S S S S S S S S S S S S S
|---------------------------------------------|
|---------------------------------------------|
|---------------------------------------------|
|-----3-3-3-3-3-3-3-3-3-3-3-3-3-3-3-3-3-3-3-3-|
|-2-5-----------------------------------------|
|---------------------------------------------|


  PM|                 PM-----------
  E E S S S S S S S S E E E E E E
|---------------------------------|
|---------------------------------|
|---------------------------------|
|---------------------------------|
|-----2-2-2-2-2-2-2-2-----2-----2-|
|-0-3-----------------0-3---0-3---|
|
| PM|                 PM-----------
| E E S S S S S S S S E E E E E E
|---------------------------------|
|---------------------------------|
|---------------------------------|
|-----4-4-4-4-4-4-4-4-----4-----4-|
|-2-5-----------------2-5---2-5---|
|---------------------------------|


 ---|
  E E S S S S S S S S S S S S S S S S S S S S
|---------------------------------------------|
|---------------------------------------------|
|---------------------------------------------|
|---------------------------------------------|
|-----5-5-5-5-5-5-5-5-5-5-5-5-5-5-5-5-5-5-5-5-|
|-0-3-----------------------------------------|
|
|---|
| E E S S S S S S S S S S S S S S S S S S S S
|---------------------------------------------|
|---------------------------------------------|
|---------------------------------------------|
|-----7-7-7-7-7-7-7-7-7-7-7-7-7-7-7-7-7-7-7-7-|
|-2-5-----------------------------------------|
|---------------------------------------------|


 Post-solo Fill             Fill
                    D.S.          D.S.S.
                            4/4
  Gtrs I, II
  PM|   PM|   PM|   PM|
  E E E E E E E E E E E E    E H..
|-------------------------||-------------|
|-------------------------||-------------|
|-------------------------||-------------|
|-----7-----6-----5-----4-||-------------|
|-----5-----4-----3-----2-||-2-----------|
|-0-3---0-2---0-1---0-1---||-0-----------|


   Outro
    &&
   12/8
    PM--|   PM|   PM|           PM|   PM  PM
    E E E E E E E E E E E E   E E E E E E E E E E E E  8x
||--------------------------|--------------------------||
||o-------------------------|-------------------------o||
||--------------------------|--------------------------||
||--------------------------|--------------------------||
||o-------5-----4-----5-5-5-|-2-----5---4---3-4-6s5s6-o||
||--0-0-0-3-0-0-2-0-0-3-3-3-|-0-0-0-3-0-2-0-1-2-4s3s4--||

END



            
            
Suggest correction
Creating personal tab
Creating personal tab
You can edit any tab online and save it as your Personal.

You can edit, replace or remove any tab part or add personal notes – all changes will be seen only by you.

Personal tabs can be accessed anytime from any device, even offline.
Learn more »
Give kudos to tab author, rate the tab!
1 2 3 4 5
comments
print report bad tab
guest
You may want to rate the tab now too:
select rating
Wanna post a correction for this tab? Suggest correction