Oops, an error
Loading. Please wait.

Always The Last To Know Tab

10,624 views 12 this week
no commentswrite comment
1 2 3 4 5
excellent!
x 7
add to favorites
launch autoscroll
font size
0
reset
how to read this tab
guitar tuner
Autoscroll
slow
fast
+/-
esc
set tempo
stop
Help us to improve Ultimate-Guitar.com Take our survey!
×
Author
Difficulty
novice
Tried to tab this out from memory. I'm aware that there are one or two small tweaks needed 
and will update it ASAP.


Intro - Riff is played 12 times in total
Listen out for timing and rhythm
"Mild" distortion
e|-----------------------------|
B|-----------------------------|
G|-14-14-14--14----------------|
D|-14-14-14--16p14-------------|
A|-----------------------------|
E|-----------------------------| x12 - upto verse


Verse - Clean

e|----------0--------------0-------------0----|
B|--0-------------0--------------0------------|
G|----2---2---------2---2----------2---2------|
D|------2-------------2--------------2--------|
A|--------------------------------------------|
E|--------------------------------------------|not sure how many times in
                                               total but repeat to the
                                               chorus.


Chorus ( repeat intro riff ) - distortion

e|---------------------------------------|
B|---------------------------------------|
G|-14-14-14--14--------------------------|
D|-14-14-14--16p14-----------------------|
A|---------------------------------------|
E|---------------------------------------|

"... Or if hes treatin you like i trated you or if hes cruel" --- play verse part

e|----------0--------------0-------------|
B|--0-------------0----------------------|
G|----2---2---------2---2----------------|
D|------2-------------2------------------|
A|---------------------------------------|
E|---------------------------------------|x1 (just <- that)


        D          E
...cruel           Ill be the last to know...

   D            E
e|---------------------------------------|
B|-7-7-7--7/9---9-9-9--9/7---------------|
G|-7-7-7--7/9---9-9-9--9/7---------------|
D|-7-7-7--7/9---9-9-9--9/7---------------|
A|-5-5-5--5/7---7-7-7--7/5---------------|
E|---------------------------------------|

then play intro riff twice until the 2nd verse

REPEAT the VERSE

REPEAT the CHORUS
listen at the end of chorus 2, the D and E chord part is repeated twice upto the bridge.


Bridge (chords) not 100% sure bout this

Bm              E
Creations gone crazy (it aint so bad)
Bm         A 
   TVs gone bad  (that aint so crazy)
Bm                 E                  A or D (palm mute and keep strumming)
Now you're the only sane thing, that I have.....


--SOLO--

e|-0--0--0-----------------------|
B|-5--3--2-----------------------|
G|---------4-4b6r4p2-------------|
D|-------------------4-2---------|
A|-------------------------------|
E|-------------------------------|

e|-0--0--0-----------------------|
B|-5--3--2-----------------------|
G|---------4-4b6r4b6r4--2--------|
D|-------------------------------|
A|-------------------------------|
E|-------------------------------|

e|-0--0--0-----------------------|
B|-5--3--2-----------------------|
G|---------4-4b6r4p2-------------|
D|-------------------4-2---------|
A|-------------------------------|
E|-------------------------------|

e|-0--0--0-----------------------|
B|-5--3--2-----------------------|
G|---------4-4b6r4-2-------------|
D|-------------------4-----------|
A|-------------------------------|
E|-------------------------------|

e|-----------------------------------|
B|-----------------------------------|
G|--9-7-6-7-6b8r6--------------------|
D|----------------7------------------|
A|-------------------7-5-4~-///------|
E|-----------------------------------|


REPEAT the CHORUS

End of chorus variation

   D                   E
e|-----------5--------------------|
B|---7----------------------------|
G|-----7--------7-----------------|
D|-------7-----------7/9----------|
A|-5-----------------5/7----------|
E|--------------------------------|x3

on third time, keep strumming the E chord untim the outro

Outro = REPEAT the INTRO :)

thts it ... message me if its unclear :P
Suggest correction
comments
print report bad tab
guest
You may want to rate the tab now too:
select rating
Wanna post a correction for this tab? Suggest correction