Oops, an error
Loading. Please wait.

Cry Myself To Sleep Tab

782 views 1 this week
no commentswrite comment
1 2 3 4 5
3 more votes to show rating
add to favorites
launch autoscroll
font size
0
reset
how to read this tab
guitar tuner
Autoscroll
slow
fast
+/-
esc
set tempo
stop
Help us to improve Ultimate-Guitar.com Take our survey!
×
Intro
E-------------------------|
B-------------------------|
G-------------------------|
D-66-66-66-66-66-66-66-66-|
A-66-66-66-66-66-66-66-66-|
E-44-44-44-44-44-44-44-44-|

Verse
E-------------------------------------------------|
B-------------------------------------------------|
G-------------------------------------------------|
D-66-66-66-66-66-66-66-66-33-33-33-33-33-33-33-33-|
A-66-66-66-66-66-66-66-66-33-33-33-33-33-33-33-33-|
E-44-44-44-44-44-44-44-44-11-11-11-11-11-11-11-11-|

E-------------------------------------------|
B-------------------------------------------|
G-66-66-66-66-66-66-66-66----6-----88-88-88-|
D-66-66-66-66-66-66-66-66-66-6--66-88-88-88-|
A-44-44-44-44-44-44-44-44-66-4--66-66-66-66-|
E-------------------------44----44----------|

Chorus ("Cry-eye-yeyeeyeeyeeyeeye...")
E-------------------------------------------------|
B-------------------------------------------------|
G-------------------------------------------------|
D-66-66-66-66-66-66-66-66-33-33-33-33-33-33-33-33-|
A-66-66-66-66-66-66-66-66-33-33-33-33-33-33-33-33-|
E-44-44-44-44-44-44-44-44-11-11-11-11-11-11-11-11-|

E-------------------------------------------------|
B-------------------------------------------------|
G-66-66-66-66-66-66-66-66-88-88-88-88-88-88-88-88-|
D-66-66-66-66-66-66-66-66-88-88-88-88-88-88-88-88-|
A-44-44-44-44-44-44-44-44-66-66-66-66-66-66-66-66-|
E-------------------------------------------------|

Bridge
E------------------------------------------------------------------|
B------------------------------------------------------------------|
G-6-6-6-6-6-6-6-6-------------------6-6-6-6-6-6-6-6--8--8--8-8-8-8-|
D-6-6-6-6-6-6-6-6--6-6-6-6-6-6-6-6--6-6-6-6-6-6-6-6--8--8--8-8-8-8-|
A-4-4-4-4-4-4-4-4--6-6-6-6-6-6-6-6--4-4-4-4-4-4-4-4--6--6--6-6-6-6-|
E------------------4-4-4-4-4-4-4-4---------------------------------|


ORDER

Intro
Verse x2
Chorus
Bridge
Verse 
Chorus
Bridge
Verse
Chours (fades out)
Suggest correction
Give kudos to tab author, rate the tab!
1 2 3 4 5
comments
print report bad tab
guest
You may want to rate the tab now too:
select rating
Wanna post a correction for this tab? Suggest correction