Oops, an error
Loading. Please wait.

Fire With Fire Tab

70 views 12 this week
no commentswrite comment
1 2 3 4 5
3 more votes to show rating
add to favorites
launch autoscroll
font size
0
reset
how to read this tab
guitar tuner
Autoscroll
slow
fast
+/-
esc
set tempo
stop
Help us to improve Ultimate-Guitar.com Take our survey!
×
Author
Difficulty
Tuning
intermediate
A E A D F# B
About this tab version
There are two guitars(both are 7-strings). Was this info helpful? Yes No
[Intro]  (guitar 1)
                                                          
D||------------------------------|------------------------------------|
A||------------------------------|------------------------------------|
F||------------------------------|------------------------------------|
C||------------------------------|------------------------------------|
G||--7-----7-------------7--7----|-------------------3--3--3--3--3--3-|
D||--7-----7-------------7--7----|-------------------3--3--3--3--3--3-|
G||--7-----7-------------7--7----|-------------------3--3--3--3--3--3-|
 
D|----------------------------------|---------------------------|
A|----------------------------------|---------------------------|
F|----------------------------------|---------------------------|
C|----------------------------------|---------------------------|
G|----3--3--2--2--2--2--2--2--2--2--|--7--7-------------7--7----|
D|----3--3--2--2--2--2--2--2--2--2--|--7--7-------------7--7----|
G|----3--3--2--2--2--2--2--2--2--2--|--7--7-------------7--7----|
 
D|------------------------------------|----------------------------------|
A|------------------------------------|----------------------------------|
F|------------------------------------|----------------------------------|
C|------------------------------------|----------------------------------|
G|-------------------3--3--3--3--3--3-|----3--3--5--5--5--5--5--5--5--5--|
D|-------------------3--3--3--3--3--3-|----3--3--5--5--5--5--5--5--5--5--|
G|-------------------3--3--3--3--3--3-|----3--3--5--5--5--5--5--5--5--5--|

D|----------------------------------|------------------------------------|
A|----------------------------------|------------------------------------|
F|----------------------------------|------------------------------------|
C|----------------------------------|------------------------------------|
G|--7--7--7--7--7--7--7--7--7--3--3-|----3--3--3--3--3--5--5--5--5--5--5-|
D|--7--7--7--7--7--7--7--7--7--3--3-|----3--3--3--3--3--5--5--5--5--5--5-|
G|--7--7--7--7--7--7--7--7--7--3--3-|----3--3--3--3--3--5--5--5--5--5--5-|
 
D|----------------------------------|----------------------------------|
A|----------------------------------|----------------------------------|
F|----------------------------------|----------------------------------|
C|----------------------------------|----------------------------------|
G|----5--5--2--2--2--2--2--2--2--2--|--7--7--7--7--7--7--7--7--7--3--3-|
D|----5--5--2--2--2--2--2--2--2--2--|--7--7--7--7--7--7--7--7--7--3--3-|
G|----5--5--2--2--2--2--2--2--2--2--|--7--7--7--7--7--7--7--7--7--3--3-|


D|------------------------------------|----------------------------------|
A|------------------------------------|----------------------------------|
F|------------------------------------|----------------------------------|
C|------------------------------------|----------------------------------|
G|----3--3--3--3--3--5--5--5--5--5--5-|----5--5--2--2--2--2--2--2--2--2--|
D|----3--3--3--3--3--5--5--5--5--5--5-|----5--5--2--2--2--2--2--2--2--2--|
G|----3--3--3--3--3--5--5--5--5--5--5-|----5--5--2--2--2--2--2--2--2--2--|


[intro]  (guitar 2)

D||------------------------------------|
A||------------------------------------|
F||--7/9---9--9--9/11--11-11-11/12-12--|
C||------------------------------------|
G||--5/7---7--7--7/9---9--9--9/10--10--|
D||------------------------------------|
G||------------------------------------|

D|----------------------------------------|------------------------------------|
A|----------------------------------------|------------------------------------|
F|-----12-12/14--14-14-14/17--17-17-17-17-|-----17-17/16--16-16-16-16-16-16-16-|
C|----------------------------------------|------------------------------------|
G|-----10-10/12--12-12-12/15--15-15-15-15-|-----15-15/14--14-14-14-14-14-14-14-|
D|----------------------------------------|------------------------------------|
G|----------------------------------------|------------------------------------|

D|------------------------------------|----------------------------------------|
A|------------------------------------|----------------------------------------|
F|--7/9--9--9--9/11--11-11-11/12-12---|-----12-12/14--14-14-14/17--17-17-17-17-|
C|------------------------------------|----------------------------------------|
G|--5/7--7--7--7/9---9--9--9/10--10---|-----10-10/12--12-12-12/15--15-15-15-15-|
D|------------------------------------|----------------------------------------|
G|------------------------------------|----------------------------------------|


 
D|------------------------------------|
A|------------------------------------|
F|-----17-17/14--14-14-14-14-14-14-14-|
C|------------------------------------|
G|-----15-15/12--12-12-12-12-12-12-12-|
D|------------------------------------|
G|------------------------------------|

 
D|----------------------------|
A|--8---7---8--5-------8---7--|
F|----------------------------|
C|----------------------------|
G|----------------------------|
D|----------------------------|
G|----------------------------|
                     
D|--------------------------|-----------------------------|
A|-------8------------------|-----------------------------|
F|----------7---------------|-----------------------------|
C|-----------------------9~-|-----------------------------|
G|--------------------------|-----------------------------|
D|--------------------------|-----------------------------|
G|--------------------------|-----------------------------|

        
D|----------------------------|-----------------------------|
A|--8---7---8--5-------8---10-|--------10/12--10------------|
F|----------------------------|-----------------------------|
C|----------------------------|-----------------------------|
G|----------------------------|-----------------------------|
D|----------------------------|-----------------------------|
G|----------------------------|-----------------------------|

      
D|-----------------------|
A|-----------------------|
F|--12~----11------------|
C|-----------------------|
G|-----------------------|
D|-----------------------|
G|-----------------------|


[Verse 1]
D|-------------------------------|---------------------------|
A|-------------------------------|---------------------------|
F|-----------------------------0-|---------------------------|
C|--5-------5---4---4---2---2--2-|---------5--5---4---4----9-|
G|--7-------7---5---5---2---2--2-|---------7--7---5---5---10-|
D|----------------------0---0--0-|---------------------------|
G|-------------------------------|---------------------------|

D|-----------------------------|--------------------------|
A|-----------------------------|--------------------------|
F|-----------------------------|-------------0------------|
C|--------5--5------5--5---4---|--4---2---2--2------------|
G|--------7--7------7--7---5---|--5---2---2--2------------|
D|-----------------------------|------0---0--0------------|
G|-----------------------------|--------------------------|
                                         
D|------------------------|
A|------------------------|
F|------------------------|
C|------------------------|
G|--3------------5--------|
D|--3------------5--------|
G|--3------------5--------|

D|-------------------------------|---------------------------|
A|-------------------------------|---------------------------|
F|-----------------------------0-|---------------------------|
C|--5-------5---4---4---2---2--2-|---------5--5---4---4----9-|
G|--7-------7---5---5---2---2--2-|---------7--7---5---5---10-|
D|----------------------0---0--0-|---------------------------|
G|-------------------------------|---------------------------|

D|-----------------------------|--------------------------|
A|-----------------------------|--------------------------|
F|-----------------------------|-------------0------------|
C|--------5--5------5--5---4---|--4---2---2--2------------|
G|--------7--7------7--7---5---|--5---2---2--2------------|
D|-----------------------------|------0---0--0------------|
G|-----------------------------|--------------------------|

D|--------------------|
A|--------------------|
F|--------------------|
C|--------------------|
G|--3------------5----|
D|--3------------5----|
G|--3------------5----|
       
D|--------------------|--------------------|--------------------|
A|--------------------|--------------------|--------------------|
F|--------------------|--------------------|--------------------|
C|--------------------|--------------------|--------------------|
G|-----------7--------|-----------3--------|-------5------------|
D|-----------7--------|-----------3--------|-------5------------|
G|-----------7--------|-----------3--------|-------5------------|
                                                 
                                             PM PM PM PM PM PM  
D|-----------------------|-------------------------------------|
A|-----------------------|-------------------------------------|
F|-----------------------|-------------------------------------|
C|-----------------------|-------------------------------------|
G|--2------------2--2--2-|----2--2--2--2--2--2--2--2--2--2--2--|
D|--2------------2--2--2-|----2--2--2--2--2--2--2--2--2--2--2--|
G|--2------------2--2--2-|----2--2--2--2--2--2--2--2--2--2--2--|

 
[Chours]

D|------------------------------------|
A|------------------------------------|
F|------------------------------------|
C|------------------------------------|
G|--7--7--7--7--7--7--7--7--7--3--3---|
D|--7--7--7--7--7--7--7--7--7--3--3---|
G|--7--7--7--7--7--7--7--7--7--3--3---|

D|-----------------------------------|--------------------------------|
A|-----------------------------------|--------------------------------|
F|-----------------------------------|--------------------------------|
C|-----------------------------------|--------------------------------|
G|---3--3--3--3--3--5--5--5--5--5--5-|--5--5--2--2--2--2--2--2--2--2--|
D|---3--3--3--3--3--5--5--5--5--5--5-|--5--5--2--2--2--2--2--2--2--2--|
G|---3--3--3--3--3--5--5--5--5--5--5-|--5--5--2--2--2--2--2--2--2--2--|


D|------------------------------------|
A|------------------------------------|
F|------------------------------------|
C|------------------------------------|
G|--7--7--7--7--7--7--7--7--7--3--3---|
D|--7--7--7--7--7--7--7--7--7--3--3---|
G|--7--7--7--7--7--7--7--7--7--3--3---|

D|-----------------------------------|--------------------------------|
A|-----------------------------------|--------------------------------|
F|-----------------------------------|--------------------------------|
C|-----------------------------------|--------------------------------|
G|---3--3--3--3--3--5--5--5--5--5--5-|--5--5--2--2--2--2--2--2--2--2--|
D|---3--3--3--3--3--5--5--5--5--5--5-|--5--5--2--2--2--2--2--2--2--2--|
G|---3--3--3--3--3--5--5--5--5--5--5-|--5--5--2--2--2--2--2--2--2--2--|

                                                                  
D|----------------------------------|------------------------------------|
A|----------------------------------|------------------------------------|
F|----------------------------------|------------------------------------|
C|----------------------------------|------------------------------------|
G|--3--3--3--3--3--3--3--3--5--5--5-|----5--5--5--5--5--6--6--6--6--6--6-|
D|--3--3--3--3--3--3--3--3--5--5--5-|----5--5--5--5--5--6--6--6--6--6--6-|
G|--3--3--3--3--3--3--3--3--5--5--5-|----5--5--5--5--5--6--6--6--6--6--6-|

D|----------------------------------|----------------------------------|
A|----------------------------------|----------------------------------|
F|----------------------------------|----------------------------------|
C|----------------------------------|----------------------------------|
G|----6--6--7--7--7--7--7--7--5--5--|--3--3--3--3--3--3--3--3--5--5--5-|
D|----6--6--7--7--7--7--7--7--5--5--|--3--3--3--3--3--3--3--3--5--5--5-|
G|----6--6--7--7--7--7--7--7--5--5--|--3--3--3--3--3--3--3--3--5--5--5-|

 
D|------------------------------------|----------------------------------|
A|------------------------------------|----------------------------------|
F|------------------------------------|----------------------------------|
C|------------------------------------|----------------------------------|
G|----5--5--5--5--5--2--2--2--2--2--2-|----2--2--2--2--2--2--2--2--2--2--|
D|----5--5--5--5--5--2--2--2--2--2--2-|----2--2--2--2--2--2--2--2--2--2--|
G|----5--5--5--5--5--2--2--2--2--2--2-|----2--2--2--2--2--2--2--2--2--2--|

[Chours] (Guitar 2)

D|----------------------------|
A|--8---7---8--5-------8---7--|
F|----------------------------|
C|----------------------------|
G|----------------------------|
D|----------------------------|
G|----------------------------|
                     
D|--------------------------|-----------------------------|
A|-------8------------------|-----------------------------|
F|----------7---------------|-----------------------------|
C|-----------------------9~-|-----------------------------|
G|--------------------------|-----------------------------|
D|--------------------------|-----------------------------|
G|--------------------------|-----------------------------|

        
D|----------------------------|-----------------------------|
A|--8---7---8--5-------8---10-|--------10/12--10------------|
F|----------------------------|-----------------------------|
C|----------------------------|-----------------------------|
G|----------------------------|-----------------------------|
D|----------------------------|-----------------------------|
G|----------------------------|-----------------------------|

      
D|-----------------------|
A|-----------------------|
F|--12~----11------------|
C|-----------------------|
G|-----------------------|
D|-----------------------|
G|-----------------------|
 
D|----------------------------------|
A|--------8-----7-----8-----------8-|
F|--5--5-----5-----5-----5--5--5----|
C|----------------------------------|
G|----------------------------------|
D|----------------------------------|
G|----------------------------------|
 
D|------------------------------------|----------------------------------|
A|-------7-----8-----------8-----7----|----8-----------8-----7-----7h8---|
F|----5-----5-----5--7--7-----7-----7-|-------7--7--7-----7-----7--------|
C|------------------------------------|----------------------------------|
G|------------------------------------|----------------------------------|
D|------------------------------------|----------------------------------|
G|------------------------------------|----------------------------------|


[Bridge] (guitar 1)
D|--------------------------------|--------------------------|
A|--------------------------------|--------------------------|
F|--------------------------------|--------------------------|
C|--------------------------------|-------------7--7---------|
G|--7-------7-------------3--3----|-------------7--7---------|
D|--7-------7-------------3--3----|-------------5--5---------|
G|--7-------7-------------3--3----|--------------------------|
    
D|----------------------------||
A|----------------------------||
F|----------------------------||
C|--------5--5---4--4---------||
G|--------5--5---5--5---5--5--||
D|--------3--3---2--2---5--5--||
G|----------------------5--5--||



[Verse 2]

D|----------------------------------------|
A|----------------------------------------|
F|----------------------------------------|
C|----------------------------------------|
G|--3--3-------------5--5-----------------|
D|--3--3-------------5--5-----------------|
G|--3--3-------------5--5-----------------|

D|-------------------------------|---------------------------|
A|-------------------------------|---------------------------|
F|-----------------------------0-|---------------------------|
C|--5-------5---4---4---2---2--2-|---------5--5---4---4----9-|
G|--7-------7---5---5---2---2--2-|---------7--7---5---5---10-|
D|----------------------0---0--0-|---------------------------|
G|-------------------------------|---------------------------|

D|-----------------------------|--------------------------|
A|-----------------------------|--------------------------|
F|-----------------------------|-------------0------------|
C|--------5--5------5--5---4---|--4---2---2--2------------|
G|--------7--7------7--7---5---|--5---2---2--2------------|
D|-----------------------------|------0---0--0------------|
G|-----------------------------|--------------------------|
                                         
D|------------------------|
A|------------------------|
F|------------------------|
C|------------------------|
G|--3------------5--------|
D|--3------------5--------|
G|--3------------5--------|
       
D|--------------------|--------------------|--------------------|
A|--------------------|--------------------|--------------------|
F|--------------------|--------------------|--------------------|
C|--------------------|--------------------|--------------------|
G|-----------7--------|-----------3--------|-------5------------|
D|-----------7--------|-----------3--------|-------5------------|
G|-----------7--------|-----------3--------|-------5------------|
                                                 
                                             PM PM PM PM PM PM  
D|-----------------------|-------------------------------------|
A|-----------------------|-------------------------------------|
F|-----------------------|-------------------------------------|
C|-----------------------|-------------------------------------|
G|--2------------2--2--2-|----2--2--2--2--2--2--2--2--2--2--2--|
D|--2------------2--2--2-|----2--2--2--2--2--2--2--2--2--2--2--|
G|--2------------2--2--2-|----2--2--2--2--2--2--2--2--2--2--2--|

 
[Chours]

D|------------------------------------|
A|------------------------------------|
F|------------------------------------|
C|------------------------------------|
G|--7--7--7--7--7--7--7--7--7--3--3---|
D|--7--7--7--7--7--7--7--7--7--3--3---|
G|--7--7--7--7--7--7--7--7--7--3--3---|

D|-----------------------------------|--------------------------------|
A|-----------------------------------|--------------------------------|
F|-----------------------------------|--------------------------------|
C|-----------------------------------|--------------------------------|
G|---3--3--3--3--3--5--5--5--5--5--5-|--5--5--2--2--2--2--2--2--2--2--|
D|---3--3--3--3--3--5--5--5--5--5--5-|--5--5--2--2--2--2--2--2--2--2--|
G|---3--3--3--3--3--5--5--5--5--5--5-|--5--5--2--2--2--2--2--2--2--2--|


D|------------------------------------|
A|------------------------------------|
F|------------------------------------|
C|------------------------------------|
G|--7--7--7--7--7--7--7--7--7--3--3---|
D|--7--7--7--7--7--7--7--7--7--3--3---|
G|--7--7--7--7--7--7--7--7--7--3--3---|

D|-----------------------------------|--------------------------------|
A|-----------------------------------|--------------------------------|
F|-----------------------------------|--------------------------------|
C|-----------------------------------|--------------------------------|
G|---3--3--3--3--3--5--5--5--5--5--5-|--5--5--2--2--2--2--2--2--2--2--|
D|---3--3--3--3--3--5--5--5--5--5--5-|--5--5--2--2--2--2--2--2--2--2--|
G|---3--3--3--3--3--5--5--5--5--5--5-|--5--5--2--2--2--2--2--2--2--2--|

                                                                  
D|----------------------------------|------------------------------------|
A|----------------------------------|------------------------------------|
F|----------------------------------|------------------------------------|
C|----------------------------------|------------------------------------|
G|--3--3--3--3--3--3--3--3--5--5--5-|----5--5--5--5--5--6--6--6--6--6--6-|
D|--3--3--3--3--3--3--3--3--5--5--5-|----5--5--5--5--5--6--6--6--6--6--6-|
G|--3--3--3--3--3--3--3--3--5--5--5-|----5--5--5--5--5--6--6--6--6--6--6-|

D|----------------------------------|----------------------------------|
A|----------------------------------|----------------------------------|
F|----------------------------------|----------------------------------|
C|----------------------------------|----------------------------------|
G|----6--6--7--7--7--7--7--7--5--5--|--3--3--3--3--3--3--3--3--5--5--5-|
D|----6--6--7--7--7--7--7--7--5--5--|--3--3--3--3--3--3--3--3--5--5--5-|
G|----6--6--7--7--7--7--7--7--5--5--|--3--3--3--3--3--3--3--3--5--5--5-|

 
D|------------------------------------|----------------------------------|
A|------------------------------------|----------------------------------|
F|------------------------------------|----------------------------------|
C|------------------------------------|----------------------------------|
G|----5--5--5--5--5--2--2--2--2--2--2-|----2--2--2--2--2--2--2--2--2--2--|
D|----5--5--5--5--5--2--2--2--2--2--2-|----2--2--2--2--2--2--2--2--2--2--|
G|----5--5--5--5--5--2--2--2--2--2--2-|----2--2--2--2--2--2--2--2--2--2--|

[Chours] (Guitar 2)

D|----------------------------|
A|--8---7---8--5-------8---7--|
F|----------------------------|
C|----------------------------|
G|----------------------------|
D|----------------------------|
G|----------------------------|
                     
D|--------------------------|-----------------------------|
A|-------8------------------|-----------------------------|
F|----------7---------------|-----------------------------|
C|-----------------------9~-|-----------------------------|
G|--------------------------|-----------------------------|
D|--------------------------|-----------------------------|
G|--------------------------|-----------------------------|

        
D|----------------------------|-----------------------------|
A|--8---7---8--5-------8---10-|--------10/12--10------------|
F|----------------------------|-----------------------------|
C|----------------------------|-----------------------------|
G|----------------------------|-----------------------------|
D|----------------------------|-----------------------------|
G|----------------------------|-----------------------------|

      
D|-----------------------|
A|-----------------------|
F|--12~----11------------|
C|-----------------------|
G|-----------------------|
D|-----------------------|
G|-----------------------|
 
D|----------------------------------|
A|--------8-----7-----8-----------8-|
F|--5--5-----5-----5-----5--5--5----|
C|----------------------------------|
G|----------------------------------|
D|----------------------------------|
G|----------------------------------|
 
D|------------------------------------|----------------------------------|
A|-------7-----8-----------8-----7----|----8-----------8-----7-----7H8---|
F|----5-----5-----5--7--7-----7-----7-|-------7--7--7-----7-----7--------|
C|------------------------------------|----------------------------------|
G|------------------------------------|----------------------------------|
D|------------------------------------|----------------------------------|
G|------------------------------------|----------------------------------|



[Breakdown]                                                              
D|-------------------|--------------------|-------------------|
A|-------------------|--------------------|-------------------|
F|-------------------|--------------------|-------------------|
C|-------------------|--------------------|-------------------|
G|--7----------------|--------------------|-------------------|
D|--7----------------|--------------------|-------------------|
G|--7----------------|--------------------|-------------------|
              
D|-------------------|--------------------|-------------------|
A|-------------------|--------------------|-------------------|
F|-------------------|--------------------|-------------------|
C|-------------------|--------------------|-------------------|
G|--7----------------|--------------------|-------------------|
D|--7----------------|--------------------|-------------------|
G|--7----------------|--------------------|-------------------|
 
D|-------------------|-------------------------|----------------------|
A|-------------------|-------------------------|----------------------|
F|-------------------|-------------------------|----------------------|
C|-------------------|--5--5---4--4------------|----------------------|
G|--3----------------|--5--5---5--5-------5----|-----7----------------|
D|--3----------------|--3--3---2--2-------5----|-----7----------------|
G|--3----------------|--------------------5----|-----7----------------|

  
D|-------------------|-----------------------|---------------------------------|
A|-------------------|-----------------------|---------------------------------|
F|-------------------|-----------------------|---------------------------------|
C|-------------------|--7------------5--5----|----4--4-------------------------|
G|--3----------------|--7------------5--5----|----5--5---5---7-------7---------|
D|--3----------------|--5------------3--3----|----2--2---5---7-------7---------|
G|--3----------------|-----------------------|-----------5---7-------7---------|

 
D|-------------------------|---------------------------|
A|-------------------------|---------------------------|
F|-------------------------|---------------------------|
C|-------------------------|--7--7-------------5--5----|
G|--------3--3-------------|--7--7-------------5--5----|
D|--------3--3-------------|--5--5-------------3--3----|
G|--------3--3-------------|---------------------------|

                 PM PM PM PM PM PM      PM PM PM                
D|-----------------------------------|----------------------------|
A|-----------------------------------|----------------------------|
F|-----------------------------------|----------------------------|
C|----4--4---------------------------|----------------------------|
G|----5--5---5--5--2--2--2--2--2--2--|----2--2--2--------5--------|
D|----2--2---5--5--2--2--2--2--2--2--|----2--2--2--------5--------|
G|-----------5--5--2--2--2--2--2--2--|----2--2--2--------5--------|

[Final]                                                  
D|----------------------|----------------------------------|
A|----------------------|----------------------------------|
F|----------------------|----------------------------------|
C|----------------------|----------------------------------|
G|--9-----9--9--9--9--9-|----9--9--6--6--6--6--6--6--6--6--|
D|--9-----9--9--9--9--9-|----9--9--6--6--6--6--6--6--6--6--|
G|--9-----9--9--9--9--9-|----9--9--6--6--6--6--6--6--6--6--|

D|----------------------------------|------------------------------------|
A|----------------------------------|------------------------------------|
F|----------------------------------|------------------------------------|
C|----------------------------------|------------------------------------|
G|--8--8--8--8--8--8--8--8--5--5--5-|----5--5--5--5--5--9--9--9--9--9--9-|
D|--8--8--8--8--8--8--8--8--5--5--5-|----5--5--5--5--5--9--9--9--9--9--9-|
G|--8--8--8--8--8--8--8--8--5--5--5-|----5--5--5--5--5--9--9--9--9--9--9-|
 
D|----------------------------------|----------------------------------|
A|----------------------------------|----------------------------------|
F|----------------------------------|----------------------------------|
C|----------------------------------|----------------------------------|
G|----9--9--6--6--6--6--6--6--6--6--|--8--8--8--8--8--8--8--8--5--5--5-|
D|----9--9--6--6--6--6--6--6--6--6--|--8--8--8--8--8--8--8--8--5--5--5-|
G|----9--9--6--6--6--6--6--6--6--6--|--8--8--8--8--8--8--8--8--5--5--5-|


                   PM PM PM PM PM PM      PM PM PM PM PM PM PM PM PM PM    
D|-------------------------------------|----------------------------------|
A|-------------------------------------|----------------------------------|
F|-------------------------------------|----------------------------------|
C|-------------------------------------|----------------------------------|
G|----5--5--5--5--5--6--6--6--6--6--6--|----6--6--8--8--8--8--8--8--8--8--|
D|----5--5--5--5--5--6--6--6--6--6--6--|----6--6--8--8--8--8--8--8--8--8--|
G|----5--5--5--5--5--6--6--6--6--6--6--|----6--6--8--8--8--8--8--8--8--8--|


  PM PM PM PM PM PM PM PM  PM PM PM       PM PM PM  PM PM PM PM PM PM PM PM  
D|-----------------------------------|--------------------------------------|
A|-----------------------------------|--------------------------------------|
F|-----------------------------------|--------------------------------------|
C|-----------------------------------|--------------------------------------|
G|--9--9--9--9--9--9--9--9--10-10-10-|-----10-10-10-8--6--6--6--6--6--6--6--|
D|--9--9--9--9--9--9--9--9--10-10-10-|-----10-10-10-8--6--6--6--6--6--6--6--|
G|--9--9--9--9--9--9--9--9--10-10-10-|-----10-10-10-8--6--6--6--6--6--6--6--|


    PM PM PM PM PM PM PM PM PM PM    PM PM PM PM PM PM PM PM PM PM PM   
D|----------------------------------|-----------------------------------|
A|----------------------------------|-----------------------------------|
F|----------------------------------|-----------------------------------|
C|----------------------------------|-----------------------------------|
G|----6--6--8--8--8--8--8--8--8--8--|--5--5--5--5--5--5--5--5--5--5--5--|
D|----6--6--8--8--8--8--8--8--8--8--|--5--5--5--5--5--5--5--5--5--5--5--|
G|----6--6--8--8--8--8--8--8--8--8--|--5--5--5--5--5--5--5--5--5--5--5--|


    PM PM PM PM PM                                        
D|-------------------------------||
A|-------------------------------||
F|-------------------------------||
C|-------------------------------||
G|----5--5--5--5--5--10/0--------||
D|----5--5--5--5--5--10/0--------||
G|----5--5--5--5--5--10/0--------||


************************************
| h   Hammer-on
| PM  Palm Mute
| /   Slide
| ~   Vibrato
| H   Hammer-on
************************************

Suggest correction
Give kudos to tab author, rate the tab!
1 2 3 4 5
comments
print report bad tab
guest
You may want to rate the tab now too:
select rating
Wanna post a correction for this tab? Suggest correction