Oops, an error
Loading. Please wait.

Frozen bass

version 1
version 1

Whole song

Interactive

by Delain
2,227 views 1 this week
no commentswrite comment
1 2 3 4 5
2 more votes to show rating
add to favorites
×
Save as Personal and add changes to this tab that will be seen only by you. Learn more ›
×
You can save this tab as Personal to edit and correct it or add notes. All changes will be seen only by you. Learn more »
launch autoscroll
font size
0
reset
guitar tuner
edit
Autoscroll
slow
fast
+/-
esc
set tempo
stop
me again, same guy from the other frozen tabs (except that (incorect) solo) i've tabbed the bass to have FUN!

douwemdevries@hotmail.com

 (Deep) Frozen                                   


                                                                          Delain
Bass



G||-------|-------|-------|-------|-------|-------|-------|-------|
D||-------|-------|-------|-------|-------|-------|-------|-------|
A||-------|-------|-------|-------|-------|-------|-------|-------|
E||-------|-------|-------|-------|-------|-------|-------|-------|


  Q.     H        E     Q.     H        E     Q.     H        E   
---------------------|---------------------|---------------------|
---------------------|---------------------|---------------------|
--3------------------|---------1--------L--|--3------------------|
---------4--------L--|--1------------------|---------4--------L--|


  Q.     H        E     Q.     H        E     Q.     H        E   
---------------------|---------------------|---------------------|
---------------------|---------------------|---------------------|
---------1--------L--|--3------------------|---------1--------L--|
--1------------------|---------4--------L--|--1------------------|


  W                   W                   Q.     H        E   
-------------------|-------------------|---------------------|
-------------------|-------------------|---------------------|
-------------------|-------------------|--3------------------|
--4----------------|--3----------------|---------4--------L--|


  Q.     H        E     Q.     H        E     Q.     H        E   
---------------------|---------------------|---------------------|
---------------------|---------------------|---------------------|
---------1--------L--|--3------------------|---------1--------L--|
--1------------------|---------4--------L--|--1------------------|


  E  E  E  E  H           Q.     H        E     W                 
-----------------------|---------------------|-------------------|
-----------------------|---------------------|-------------------|
--3-----3-----3--------|---------1--------L--|-------------------|
-----------------------|--1------------------|--4----------------|


  Q    Q    H           H.           Q       E  Q    E  H         
---------------------|--------------------|----------------------|
---------------------|--------------------|----------------------|
---------------------|--------------------|----------------------|
--3----4----3--------|--1------------1----|--L--1----1--1--------|


  H.           Q       Q.     E   H           H.           Q     
--------------------|----------------------|--------------------|
--------------------|----------------------|--------------------|
--------------------|----------------------|--------------------|
--4------------3----|--L------4S--3--------|--1------------1----|


  E  Q    E  H           Q.     Q.     Q       W                 
----------------------|---------------------|-------------------|
----------------------|---------------------|-------------------|
----------------------|--8------6------8----|--L----------------|
--L--1----1--1--------|---------------------|-------------------|


  H.           Q       E  Q    E  H           H.           Q     
--------------------|----------------------|--------------------|
--------------------|----------------------|--------------------|
--------------------|----------------------|--------------------|
--1------------1----|--L--1----1--1--------|--4------------3----|


  Q.     E   H           H.           Q       E  Q    E  H         
----------------------|--------------------|----------------------|
----------------------|--------------------|----------------------|
----------------------|--------------------|----------------------|
--L------4S--3--------|--1------------1----|--L--1----1--1--------|


  Q.     Q.     Q       W                   E  E  E   H        E   
---------------------|-------------------|------------------------|
---------------------|-------------------|------------------------|
--8------6------8----|--L----------------|-----------11--------L--|
---------------------|-------------------|--8--8------------------|


  Q.      H        E     E  Q     H        E     Q.      H        E   
----------------------|-----------------------|----------------------|
----------------------|-----------------------|----------------------|
--8------13--------L--|----------11--------L--|--8------13--------L--|
----------------------|--8--8-----------------|----------------------|


  E  E  E   H        E     Q.      H        E     W                 
------------------------|----------------------|-------------------|
------------------------|----------------------|-------------------|
-----------11--------L--|--8------13--------L--|-------------------|
--8--8------------------|----------------------|--4----------------|


  W                   Q    Q     H           Q.      H        E   
-------------------|----------------------|----------------------|
-------------------|----------------------|----------------------|
-------------------|------------11--------|--8------13--------L--|
--3----------------|--8----8--------------|----------------------|


  E  Q     H        E     Q.      H        E     E  E  E   H        E   
-----------------------|----------------------|------------------------|
-----------------------|----------------------|------------------------|
----------11--------L--|--8------13--------L--|-----------11--------L--|
--8--8-----------------|----------------------|--8--8------------------|


  Q.      H        E     W                   Q    Q    H         
----------------------|-------------------|---------------------|
----------------------|-------------------|---------------------|
--8------13--------L--|-------------------|---------------------|
----------------------|--4----------------|--3----4----6--------|


  H.           Q       E  Q    E  H           H.           Q     
--------------------|----------------------|--------------------|
--------------------|----------------------|--------------------|
--------------------|----------------------|--------------------|
--1------------1----|--L--1----1--1--------|--4------------3----|


  Q.     E   H           H.           Q       E  Q    E  H         
----------------------|--------------------|----------------------|
----------------------|--------------------|----------------------|
----------------------|--------------------|----------------------|
--L------4S--3--------|--1------------1----|--L--1----1--1--------|


  Q.     Q.     Q       W                   H.           Q     
---------------------|-------------------|--------------------|
---------------------|-------------------|--------------------|
--8------6------8----|--L----------------|--------------------|
---------------------|-------------------|--1------------1----|


  E  Q    E  H           H.           Q       Q.     E   H         
----------------------|--------------------|----------------------|
----------------------|--------------------|----------------------|
----------------------|--------------------|----------------------|
--L--1----1--1--------|--4------------3----|--L------4S--3--------|


  H.           Q       E  Q    E  H           Q.     Q.     Q     
--------------------|----------------------|---------------------|
--------------------|----------------------|---------------------|
--------------------|----------------------|--8------6------8----|
--1------------1----|--L--1----1--1--------|---------------------|


  W                   E  E  E   H        E     Q.      H        E   
-------------------|------------------------|----------------------|
-------------------|------------------------|----------------------|
--L----------------|-----------11--------L--|--8------13--------L--|
-------------------|--8--8------------------|----------------------|


  E  Q     H        E     Q.      H        E     E  E  E   H        E   
-----------------------|----------------------|------------------------|
-----------------------|----------------------|------------------------|
----------11--------L--|--8------13--------L--|-----------11--------L--|
--8--8-----------------|----------------------|--8--8------------------|


  Q.      H        E     W                   W                 
----------------------|-------------------|-------------------|
----------------------|-------------------|-------------------|
--8------13--------L--|-------------------|-------------------|
----------------------|--4----------------|--3----------------|


  Q    Q     H           Q.      H        E     E  Q     H        E   
----------------------|----------------------|-----------------------|
----------------------|----------------------|-----------------------|
------------11--------|--8------13--------L--|----------11--------L--|
--8----8--------------|----------------------|--8--8-----------------|


  Q.      H        E     E  E  E   H        E     Q.      H        E   
----------------------|------------------------|----------------------|
----------------------|------------------------|----------------------|
--8------13--------L--|-----------11--------L--|--8------13--------L--|
----------------------|--8--8------------------|----------------------|


  W                   Q    Q    H                                             
-------------------|---------------------|-----------|-----------|-----------|
-------------------|---------------------|-----------|-----------|-----------|
-------------------|---------------------|-----------|-----------|-----------|
--4----------------|--3----4----6--------|-----------|-----------|-----------|


-----------|-----------|-----------|-----------|-----------|-----------|
-----------|-----------|-----------|-----------|-----------|-----------|
-----------|-----------|-----------|-----------|-----------|-----------|
-----------|-----------|-----------|-----------|-----------|-----------|


                                      Q    Q    H           Q    Q    H         
-----------|-----------|-----------|---------------------|---------------------|
-----------|-----------|-----------|---------------------|---------------------|
-----------|-----------|-----------|---------------------|---------------------|
-----------|-----------|-----------|--8----8----8--------|--6----6----6--------|


  Q    Q    H           H        H           W                 
---------------------|--------------------|-------------------|
---------------------|--------------------|-------------------|
---------------------|--------------------|-------------------|
--4----4----4--------|--1--------3--------|--4----------------|


  W                   W                   W                  
-------------------|-------------------|--------------------|
-------------------|-------------------|--------------------|
-------------------|-------------------|--------------------|
--3----------------|--6----------------|--4S----------------|


  Q    Q    H           Q    Q    H           Q    Q    H         
---------------------|---------------------|---------------------|
---------------------|---------------------|---------------------|
---------------------|---------------------|---------------------|
--8----8----8--------|--6----6----6--------|--4----4----4--------|


  H        H           W                   W                 
--------------------|-------------------|-------------------|
--------------------|-------------------|-------------------|
--------------------|-------------------|-------------------|
--1--------3--------|--4----------------|--3----------------|


  W                   W                    H.           Q     
-------------------|--------------------|--------------------|
-------------------|--------------------|--------------------|
-------------------|--------------------|--------------------|
--6----------------|--4S----------------|--1------------1----|


  E  Q    E  H           H.           Q       Q.     E   H         
----------------------|--------------------|----------------------|
----------------------|--------------------|----------------------|
----------------------|--------------------|----------------------|
--L--1----1--1--------|--4------------3----|--L------4S--3--------|


  H.           Q       E  Q    E  H           Q.     Q.     Q     
--------------------|----------------------|---------------------|
--------------------|----------------------|---------------------|
--------------------|----------------------|--8------6------8----|
--1------------1----|--L--1----1--1--------|---------------------|


  W                   H.           Q       E  Q    E  H         
-------------------|--------------------|----------------------|
-------------------|--------------------|----------------------|
--L----------------|--------------------|----------------------|
-------------------|--1------------1----|--L--1----1--1--------|


  H.           Q       Q.     E   H           H.           Q     
--------------------|----------------------|--------------------|
--------------------|----------------------|--------------------|
--------------------|----------------------|--------------------|
--4------------3----|--L------4S--3--------|--1------------1----|


  E  Q    E  H           Q.     Q.     Q       W                 
----------------------|---------------------|-------------------|
----------------------|---------------------|-------------------|
----------------------|--8------6------8----|--L----------------|
--L--1----1--1--------|---------------------|-------------------|


  E  E  E   H        E     Q.      H        E     E  Q     H        E   
------------------------|----------------------|-----------------------|
------------------------|----------------------|-----------------------|
-----------11--------L--|--8------13--------L--|----------11--------L--|
--8--8------------------|----------------------|--8--8-----------------|


  Q.      H        E     E  E  E   H        E     Q.      H        E   
----------------------|------------------------|----------------------|
----------------------|------------------------|----------------------|
--8------13--------L--|-----------11--------L--|--8------13--------L--|
----------------------|--8--8------------------|----------------------|


  W                   W                   Q    Q     H         
-------------------|-------------------|----------------------|
-------------------|-------------------|----------------------|
-------------------|-------------------|------------11--------|
--4----------------|--3----------------|--8----8--------------|


  Q.      H        E     E  Q     H        E     Q.      H        E   
----------------------|-----------------------|----------------------|
----------------------|-----------------------|----------------------|
--8------13--------L--|----------11--------L--|--8------13--------L--|
----------------------|--8--8-----------------|----------------------|


  E  E  E  H        E     E  E  E  H        E     W                 
-----------------------|-----------------------|-------------------|
-----------------------|-----------------------|-------------------|
-----------------------|-----------------------|-------------------|
--8--8-----8--------L--|--6--6-----6--------L--|--4----------------|


  W                   W                                          
-------------------|-------------------|-----------|-----------||
-------------------|-------------------|-----------|-----------||
-------------------|-------------------|-----------|-----------||
--3----------------|--1----------------|-----------|-----------||




Duration Legend
---------------
W - whole
H - half
Q - quarter
E - 8th
S - 16th
T - 32nd
X - 64th
. - note dotted
|-n-|  - n-tuplets


Tablature Legend
----------------
L - tied note
x - dead note
g - grace note
(n) - ghost note
> - accentuded note
NH - natural harmonic
AH - artificial harmonic
TH - tapped harmonic
SH - semi harmonic
PH - pitch harmonic
h - hammer on
p - pull off
b - bend
br - bendRelease
pb - preBend
pbr - preBendRelease
brb - bendReleaseBend
\n/ - tremolo bar dip
\n - tremolo bar dive
-/n - tremolo bar Release up
/n\ - tremolo bar inverted dip
/n - tremolo bar return
-\n - tremolo bar Release down
S - shift slide
s - legato slide
/ -  slide into from below or out of upwards
\ -  slide into from above or out of downwards
~ - vibrato
W - wide vibrato
tr - trill
TP - tremolo picking
T - tapping
S - slap
P - pop
< - fade in
^ - brush up
v - brush down
Suggest correction
Creating personal tab
Creating personal tab
You can edit any tab online and save it as your Personal.

You can edit, replace or remove any tab part or add personal notes – all changes will be seen only by you.

Personal tabs can be accessed anytime from any device, even offline.
Learn more »
Give kudos to tab author, rate the tab!
1 2 3 4 5
comments
print report bad tab
guest
Wanna post a correction for this tab? Suggest correction