Oops, an error
Loading. Please wait.

Here Come The Vultures solo tab

version 1
version 1

Solo

  • May be in a different tuning than the actual song.

Interactive

by Delain
28 views 1 this week
no commentswrite comment
1 2 3 4 5
3 more votes to show rating
add to favorites
×
Save as Personal and add changes to this tab that will be seen only by you. Learn more ›
×
You can save this tab as Personal to edit and correct it or add notes. All changes will be seen only by you. Learn more »
launch autoscroll
font size
0
reset
how to read this tab
guitar tuner
edit
Autoscroll
slow
fast
+/-
esc
set tempo
stop
About this tab version
May be in a different tuning than the actual song. Was this info helpful? Yes No
Delain - Here Come The Vultures (Solo)
--------------------------------------

Just the solo section, because it's missing from the Guitar Pro tabs. 

I'm including two versions: one in standard tuning with drop-A if you want to play along with the existing
Guitar Pro tabs, and one in full-step down tuning, which is the "correct" way to play it according to live
video (Many thanks to NSpen1 for sharing this link: https://www.youtube.com/watch?v=IFnjjd0FN8M ).


[DROP A TUNING (A E A D G B e) VERSION]
---------------------------------------

[Rhythm]
e|-----------------------------------|----------------------------------|
B|-----------------------------------|----------------------------------|
G|-----------------------------------|----------------------------------|
D|-----------------------------------|----------------------------------|
A|-----------------------------------|----------------------------------|
E|--1p0-----3p0-----1p0-----3p0------|--1p0-----3p0---1p0---3p0---------|
A|--1p0-0-0-3p0-0-0-1p0-0-0-3p0-0-0--|--1p0-0-0-3p0-0-1p0-0-3p0-0-6~~~--|
P.M.    . .     . .     . .     . .         . .     .     .     .

[Lead]
e|---------------------------------------------------|
B|--11p10-------13p10-------11p10-------13p10--------|
G|---------------------------------------------------|
D|---------------------------------------------------|
A|--------12-12-------12-12-------12-12-------12-12--|
E|---------------------------------------------------|
A|---------------------------------------------------|
P.M.      .  .        .  .        .  .        .  .   

e|------------------------------h12h15t17p15p12---------------------------|
B|--11p10----13p10----------------------------------------15b17r15b17~~~--|
G|--------------------h12h14t17-----------------t17p14p12-----------------|
D|------------------------------------------------------------------------|
A|--------12-------12-----------------------------------------------------|
E|------------------------------------------------------------------------|
A|------------------------------------------------------------------------|
          .        .

                                                                                     Chorus starts here
e|-----------------------------------|---------------12-15p12----12----------12-15--|--15b17~~~~----|
B|-----------------------------------|---------10/13----------13----13----13--------|---------------|
G|------5---5\4-----5---5\4-----5----|-----5/9-------------------------14-----------|---------------|
D|--5/7---7-----5/7---7-----5/7---7--|-5/7------------------------------------------|---------------|
A|-----------------------------------|----------------------------------------------|---------------|
E|-----------------------------------|----------------------------------------------|---------------|
A|-----------------------------------|----------------------------------------------|---------------|
P.M.      .           .           .                                    .



[FULL STEP DOWN (A D G C F A d) VERSION]
----------------------------------------

[Rhythm]
d|-----------------------------------|----------------------------------|
A|-----------------------------------|----------------------------------|
F|-----------------------------------|----------------------------------|
C|-----------------------------------|----------------------------------|
G|-----------------------------------|----------------------------------|
D|--3-------5-------3-------5--------|--3-------5-----3-----5-----------|
A|--1p0-0-0-3p0-0-0-1p0-0-0-3p0-0-0--|--1p0-0-0-3p0-0-1p0-0-3p0-0-6~~~--|
P.M.    . .     . .     . .     . .         . .     .     .     .

[Lead]
d|-------------------------------------------|
A|--13p12-0-0-15p12-0-0-13p12-0-0-15p12-0-0--|
F|-------------------------------------------|
C|-------------------------------------------|
G|-------------------------------------------|
D|-------------------------------------------|
A|-------------------------------------------|
P.M.      . .       . .       . .       . .   

d|-----------------------------h14h17t19p17p14---------------------------|
A|--13p12-0-15p12-0--------------------------------------17b19r17b19~~~--|
F|-------------------h14h16t19-----------------t19p16p14-----------------|
C|-----------------------------------------------------------------------|
G|-----------------------------------------------------------------------|
D|-----------------------------------------------------------------------|
A|-----------------------------------------------------------------------|
          .        .

                                                                                     Chorus starts here
d|-----------------------------------|----------------14-17p14----14----------14-17--|--17b19~~~~----|
A|-----------------------------------|----------12/15----------15----15----15--------|---------------|
F|------7---7\6-----7---7\6-----7----|-----7/11-------------------------16-----------|---------------|
C|--7/9---9-----7/9---9-----7/9---9--|-7/9-------------------------------------------|---------------|
G|-----------------------------------|-----------------------------------------------|---------------|
D|-----------------------------------|-----------------------------------------------|---------------|
A|-----------------------------------|-----------------------------------------------|---------------|
P.M.      .           .           .        


[Legend]

P.M. = palm mute
p    = pull-off
h    = hammer-on
t    = tap w/right hand finger
b(x) = bend to pitch of indicated fret 
r    = release bend
~    = vibrato
/    = slide up
\    = slide down

            
            
Suggest correction
Creating personal tab
Creating personal tab
You can edit any tab online and save it as your Personal.

You can edit, replace or remove any tab part or add personal notes – all changes will be seen only by you.

Personal tabs can be accessed anytime from any device, even offline.
Learn more »
Give kudos to tab author, rate the tab!
1 2 3 4 5
comments
print report bad tab
guest
You may want to rate the tab now too:
select rating
Wanna post a correction for this tab? Suggest correction