Oops, an error
Loading. Please wait.

The Glory And The Scum Tab

37 views 1 this week
no commentswrite comment
1 2 3 4 5
3 more votes to show rating
add to favorites
launch autoscroll
font size
0
reset
how to read this tab
guitar tuner
Autoscroll
slow
fast
+/-
esc
set tempo
stop
Help us to improve Ultimate-Guitar.com Take our survey!
×
Author
Difficulty
Tuning
intermediate
A E A D F# B
About this tab version
There are two guitars using 7 strings(Drop A). Was this info helpful? Yes No
[Intro]
E|--------------------------|-------------------------|
B|--------------------------|-------------------------|
G|--------------------------|-------------------------|
D|--------------------------|-------------------------|
A|--10--------10--12--13----|------12------8----10----|
E|--10--------10--12--13----|------12------8----10----|
A|--10--------10--12--13----|------12------8----10----|


E|--------------------------|------------------------|--------------------|
B|--------------------------|------------------------|--------------------|
G|--------------------------|------------------------|--------------------|
D|--------------------------|------------------------|--------------------|
A|------------10--12--13----|------12------8----6----|---------------8----|
E|------------10--12--13----|------12------8----6----|---------------8----|
A|------------10--12--13----|------12------8----6----|---------------8----|

[Riff] 
E|-------------------------|-----------------------------------|
B|-------------------------|-----------------------------------|
G|-------------------------|-----------------------------------|
D|-------------------------|-----------------------------------|
A|---------------10-8-10---|-----11-10-11-----8-11-----10-8-10-|
E|---------------10-8-10---|-----11-10-11-----8-11-----10-8-10-|
A|---------------10-8-10---|-----11-10-11-----8-11-----10-8-10-|

E|-----------------------------|------------------------------------|
B|-----------------------------|------------------------------------|
G|-----------------------------|------------------------------------|
D|-----------------------------|------------------------------------|
A|------3--4--1-----10-8-10----|----11-10-11----8-11-----10-8-10----|
E|------3--4--1-----10-8-10----|----11-10-11----8-11-----10-8-10----|
A|------3--4--1-----10-8-10----|----11-10-11----8-11-----10-8-10----|

E|------------------------|
B|------------------------|
G|------------------------|
D|------------------------|
A|----3--4--1-------------|
E|----3--4--1-------------|
A|----3--4--1-------------|

[Verse]                            
    PM        PM PM PM PM PM PM  PM
E|--------------------------------------|       
B|--------------------------------------|
G|--------------------------------------|
D|--------------------------------------|
A|--1---------1--1--1--1--1--1---0------|
E|--1---------1--1--1--1--1--1---0------|
A|--1---------1--1--1--1--1--1---0------|

[Chorus]
E|----------------------------------------|
B|----------------------------------------|
G|----------------------------------------|
D|----------------------------------------|
A|--10-------10--10--10-10--10-10------10-|
E|--10-------10--10--10-10--10-10------10-|
A|--10-------10--10--10-10--10-10------10-|

E|------------------------------------------|-----------------------------------|
B|------------------------------------------|-----------------------------------|
G|------------------------------------------|-----------------------------------|
D|------------------------------------------|-----------------------------------|
A|--10-10---10---10--10-10--10-10---10---10-|-----10--10--10--10-10--10-10------|
E|--10-10---10---10--10-10--10-10---10---10-|-----10--10--10--10-10--10-10------|
A|--10-10---10---10--10-10--10-10---10---10-|-----10--10--10--10-10--10-10------|

E|--------------------------------|-------------------|-------------------| 
B|--------------------------------|-------------------|-------------------|
G|--------------------------------|-------------------|-------------------|
D|--------------------------------|-------------------|-------------------|
A|--10--10--10-10--10-10----------|--6----------------|--8----------------|
E|--10--10--10-10--10-10----------|--6----------------|--8----------------|
A|--10--10--10-10--10-10----------|--6----------------|--8----------------|

[Riff]
E|-----------------------------------|-----------------------------|
B|-----------------------------------|-----------------------------|
G|-----------------------------------|-----------------------------|
D|-----------------------------------|-----------------------------|
A|--10-8-10------11-10-11-----8-11---|-------10-8-10-----3--4--1---|
E|--10-8-10------11-10-11-----8-11---|-------10-8-10-----3--4--1---|
A|--10-8-10------11-10-11-----8-11---|-------10-8-10-----3--4--1---|

E|---------------------------------|-------------------------------|
B|---------------------------------|-------------------------------|
G|---------------------------------|-------------------------------|
D|---------------------------------|-------------------------------|
A|-------10-8-10------11-10-11-----|--8-11-----10-8-10-----3--4--1-|
E|-------10-8-10------11-10-11-----|--8-11-----10-8-10-----3--4--1-|
A|-------10-8-10------11-10-11-----|--8-11-----10-8-10-----3--4--1-|


************************************
| PM  Palm mute
************************************ 
Suggest correction
Give kudos to tab author, rate the tab!
1 2 3 4 5
comments
print report bad tab
guest
You may want to rate the tab now too:
select rating
Wanna post a correction for this tab? Suggest correction