Oops, an error
Loading. Please wait.

Time tab

version 2
version 2

Whole song

Interactive

64 views 1 this week
no commentswrite comment
1 2 3 4 5
1 last vote to show rating
add to favorites
×
Save as Personal and add changes to this tab that will be seen only by you. Learn more ›
×
You can save this tab as Personal to edit and correct it or add notes. All changes will be seen only by you. Learn more »
launch autoscroll
font size
0
reset
how to read this tab
guitar tuner
edit
Autoscroll
slow
fast
+/-
esc
set tempo
stop
Time by the Deli Creeps

Tuned a half step down


[Intro]

Clean
eb|-----------------|-----------------|------------------|-------------------||
Bb|----0h1----------|-----0h3---------|---1-0h1----------|-----0-------------||
Gb|--------2--------|---------0-------|---------2--------|-----4-5-4---------||
Db|-----------------|-----------------|------------------|------------5/7----||
Ab|-0---------------|--0--------------|---3--------------|---0---------------||
Eb|-----------------|-----------------|------------------|-------------------||

eb|-----------------|-----------------|---1~-------------|-------------------||
Bb|----0h1----------|-----0h3---------|---1~-------------|-------------------||
Gb|--------2--------|---------0-------|---2~-------------|-------------------||
Db|-----------------|-----------------|---3~-------------|-------------------||
Ab|-0---------------|--0--------------|---3~-------------|-------------------||
Eb|-----------------|-----------------|------------------|-------------------||

eb|-----------------|-----------------|------------------|-------------------||
Bb|----0h1----------|-----0h3---------|---1-0h1----------|-----0-------------||
Gb|--------2--------|---------0-------|---------2--------|-----4-5-4---------||
Db|-----------------|-----------------|------------------|------------5/7----||
Ab|-0---------------|--0--------------|---3--------------|---0---------------||
Eb|-----------------|-----------------|------------------|-------------------||

eb|-----------------|-----------------|---1~-------------|-------------------||
Bb|----0h1----------|-----0h3---------|---1~-------------|-------------------||
Gb|--------2--------|---------0-------|---2~-------------|-------------------||
Db|-----------------|-----------------|---3~-------------|-------------------||
Ab|-0---------------|--0--------------|---3~-------------|-------------------||
Eb|-----------------|-----------------|------------------|-------------------||


[Verse]

eb|-----------------|-----------------|------------------|-------------------||
Bb|----0h1----------|-----0h3---------|---1-0h1----------|-----0-------------||
Gb|--------2--------|---------0-------|---------2--------|-----4-5-4---------||
Db|-----------------|-----------------|------------------|------------5/7----||
Ab|-0---------------|--0--------------|---3--------------|---0---------------||
Eb|-----------------|-----------------|------------------|-------------------||

eb|-----------------|-----------------|---1~-------------|-------------------||
Bb|----0h1----------|-----0h3---------|---1~-------------|-------------------||
Gb|--------2--------|---------0-------|---2~-------------|-------------------||
Db|-----------------|-----------------|---3~-------------|-------------------||
Ab|-0---------------|--0--------------|---3~-------------|-------------------||
Eb|-----------------|-----------------|------------------|-------------------||

eb|-----------------|-----------------|------------------|-------------------||
Bb|----0h1----------|-----0h3---------|---1-0h1----------|-----0-------------||
Gb|--------2--------|---------0-------|---------2--------|-----4-5-4---------||
Db|-----------------|-----------------|------------------|------------5/7----||
Ab|-0---------------|--0--------------|---3--------------|---0---------------||
Eb|-----------------|-----------------|------------------|-------------------||
                                        Add Distortion
eb|-----------------|-----------------|---1~-------------|-------------------||
Bb|----0h1----------|-----0h3---------|---1~-------------|-------------------||
Gb|--------2--------|---------0-------|---2~-------------|-------------------||
Db|-----------------|-----------------|---3~-------------|-------------------||
Ab|-0---------------|--0--------------|---3~-------------|-------------------||
Eb|-----------------|-----------------|---1~-------------|-------------------||


[Chorus]

eb|--5-55-5---------|---3~------|--1--11-1------|----------------||
Bb|--5-55-5---------|---3~------|--1--11-1------|----------------||
Gb|--5-55-5---------|---4~------|--2--22-2------|--4--5--4-------||
Db|--7-77-7---------|---5~------|--3--33-3------|-----------5----||
Ab|--7-77-7---------|---5~------|--3--33-3------|----------------||
Eb|--5-55-5---------|---3~------|--1--11-1------|----------------||
P.M.   ..                             ..

eb|--5-55-5---------|---3~------|--1~-----------|--1-----1-------||
Bb|--5-55-5---------|---3~------|--1~-----------|----1-----1-----||
Gb|--5-55-5---------|---4~------|--2~-----------|------2-----2---||
Db|--7-77-7---------|---5~------|--3~-----------|----------------||
Ab|--7-77-7---------|---5~------|--3~-----------|----------------||
Eb|--5-55-5---------|---3~------|--1~-----------|----------------||
P.M.   ..                             

eb|--5-55-5---------|---3~------|--1--11-1------|----------------||
Bb|--5-55-5---------|---3~------|--1--11-1------|----------------||
Gb|--5-55-5---------|---4~------|--2--22-2------|--4--5--4-------||
Db|--7-77-7---------|---5~------|--3--33-3------|-----------5----||
Ab|--7-77-7---------|---5~------|--3--33-3------|----------------||
Eb|--5-55-5---------|---3~------|--1--11-1------|----------------||
P.M.   ..                             ..

eb|--5-55-5---------|---3~------|--1~-----------|----------------||
Bb|--5-55-5---------|---3~------|--1~-----------|----------------||
Gb|--5-55-5---------|---4~------|--2~-----------|----------------||
Db|--7-77-7---------|---5~------|--3~-----------|----------------||
Ab|--7-77-7---------|---5~------|--3~-----------|----------------||
Eb|--5-55-5---------|---3~------|--1~-----------|----------------||
P.M.   ..                             


[Instrumental]

Clean
eb|-----------------|-----------------|------------------|-------------------||
Bb|----0h1----------|-----0h3---------|---1-0h1----------|-----0-------------||
Gb|--------2--------|---------0-------|---------2--------|-----4-5-4---------||
Db|-----------------|-----------------|------------------|------------5/7----||
Ab|-0---------------|--0--------------|---3--------------|---0---------------||
Eb|-----------------|-----------------|------------------|-------------------||

eb|-----------------|-----------------|---1~-------------|-------------------||
Bb|----0h1----------|-----0h3---------|---1~-------------|-------------------||
Gb|--------2--------|---------0-------|---2~-------------|-------------------||
Db|-----------------|-----------------|---3~-------------|-------------------||
Ab|-0---------------|--0--------------|---3~-------------|-------------------||
Eb|-----------------|-----------------|------------------|-------------------||


[Verse]

eb|-----------------|-----------------|------------------|-------------------||
Bb|----0h1----------|-----0h3---------|---1-0h1----------|-----0-------------||
Gb|--------2--------|---------0-------|---------2--------|-----4-5-4---------||
Db|-----------------|-----------------|------------------|------------5/7----||
Ab|-0---------------|--0--------------|---3--------------|---0---------------||
Eb|-----------------|-----------------|------------------|-------------------||

eb|-----------------|-----------------|---1~-------------|-------------------||
Bb|----0h1----------|-----0h3---------|---1~-------------|-------------------||
Gb|--------2--------|---------0-------|---2~-------------|-------------------||
Db|-----------------|-----------------|---3~-------------|-------------------||
Ab|-0---------------|--0--------------|---3~-------------|-------------------||
Eb|-----------------|-----------------|------------------|-------------------||

eb|-----------------|-----------------|------------------|-------------------||
Bb|----0h1----------|-----0h3---------|---1-0h1----------|-----0-------------||
Gb|--------2--------|---------0-------|---------2--------|-----4-5-4---------||
Db|-----------------|-----------------|------------------|------------5/7----||
Ab|-0---------------|--0--------------|---3--------------|---0---------------||
Eb|-----------------|-----------------|------------------|-------------------||
                                        Add Distortion
eb|-----------------|-----------------|---1~-------------|-------------------||
Bb|----0h1----------|-----0h3---------|---1~-------------|-------------------||
Gb|--------2--------|---------0-------|---2~-------------|-------------------||
Db|-----------------|-----------------|---3~-------------|-------------------||
Ab|-0---------------|--0--------------|---3~-------------|-------------------||
Eb|-----------------|-----------------|---1~-------------|-------------------||


[Chorus]

eb|--5-55-5---------|---3~------|--1--11-1------|----------------||
Bb|--5-55-5---------|---3~------|--1--11-1------|----------------||
Gb|--5-55-5---------|---4~------|--2--22-2------|----------------||
Db|--7-77-7---------|---5~------|--3--33-3------|----------------||
Ab|--7-77-7---------|---5~------|--3--33-3------|--2--3--3-------||
Eb|--5-55-5---------|---3~------|--1--11-1------|-----------3----||
P.M.   ..                             ..

eb|--5-55-5---------|---3~------|--1~-----------|--1-----1-------||
Bb|--5-55-5---------|---3~------|--1~-----------|----1-----1-----||
Gb|--5-55-5---------|---4~------|--2~-----------|------2-----2---||
Db|--7-77-7---------|---5~------|--3~-----------|----------------||
Ab|--7-77-7---------|---5~------|--3~-----------|----------------||
Eb|--5-55-5---------|---3~------|--1~-----------|----------------||
P.M.   ..                             

eb|--5-55-5---------|---3~------|--1--11-1------|----------------||
Bb|--5-55-5---------|---3~------|--1--11-1------|----------------||
Gb|--5-55-5---------|---4~------|--2--22-2------|----------------||
Db|--7-77-7---------|---5~------|--3--33-3------|----------------||
Ab|--7-77-7---------|---5~------|--3--33-3------|--2--3--2-------||
Eb|--5-55-5---------|---3~------|--1--11-1------|-----------3----||
P.M.   ..                             ..

eb|--5-55-5---------|---3~------|--1~-----------|----------------||
Bb|--5-55-5---------|---3~------|--1~-----------|----------------||
Gb|--5-55-5---------|---4~------|--2~-----------|----------------||
Db|--7-77-7---------|---5~------|--3~-----------|----------------||
Ab|--7-77-7---------|---5~------|--3~-----------|----------------||
Eb|--5-55-5---------|---3~------|--1~-----------|------x-12s/1---||
P.M.   ..                             


[Bridge]

eb|-------------------|--------------------|------------------------|-----------------------|
Bb|-------------------|--------------------|------------------------|-----------------------|
Gb|-------------------|--------------------|------------------------|-----------------------|
Db|-------------------|--------------------|------------------------|-----------------------|
Ab|----2----3---5-----|----2----3---5------|-----------8-----7------|-----------8-----7-----|
Eb|--1---1---1----1~--|--1---1---1----1~---|--5--8--5-----5-----5~--|--5--8--5-----5-----5~-|
P.M. .   .   .           .   .   .            .  .  .  .  .  .         .  .  .  .  .  .

eb|-------------------|--------------------|------------------------|-----------------------|
Bb|-------------------|--------------------|------------------------|-----------------------|
Gb|-------------------|--------------------|------------------------|-----------------------|
Db|-------------------|--------------------|------------------------|-----------------------|
Ab|----2----3---5-----|----2----3---5------|-----------8-----7------|-----------8-----7-----|
Eb|--1---1---1----1~--|--1---1---1----1~---|--5--8--5-----5-----5~--|--5--8--5-----5-----5~-|
P.M. .   .   .           .   .   .            .  .  .  .  .  .         .  .  .  .  .  .

eb|-------------------|--------------------|------------------------|-----------------------|
Bb|-------------------|--------------------|------------------------|-----------------------|
Gb|-------------------|--------------------|------------------------|-----------------------|
Db|-------------------|--------------------|------------------------|-----------------------|
Ab|----2----3---5-----|----2----3---5------|-----------8-----7------|-----------8-----7-----|
Eb|--1---1---1----1~--|--1---1---1----1~---|--5--8--5-----5-----5~--|--5--8--5-----5-----5~-|
P.M. .   .   .           .   .   .            .  .  .  .  .  .         .  .  .  .  .  .

eb|-------------------|--------------------|------------------------|-----------------------|
Bb|-------------------|--------------------|------------------------|-----------------------|
Gb|-------------------|--------------------|------------------------|-----------------------|
Db|-------------------|--------------------|------------------------|-----------------------|
Ab|----2----3---5-----|----2----3---5------|-----------8-----7------|-----------8-----7-----|
Eb|--1---1---1----1~--|--1---1---1----1~---|--5--8--5-----5-----5~--|--5--8--5-----5-----5~-|
P.M. .   .   .           .   .   .            .  .  .  .  .  .         .  .  .  .  .  .


[Solo]

eb|----------------|-3-3-3~---------|------7/8-------|----------------||
Bb|--5-5-5--3-3-3~-|---------5p3h5--|----5-----8~----|-----5-6--------||
Gb|----------------|----------------|----------------|---------5~-----||
Db|----------------|----------------|----------------|----------------||
Ab|----------------|----------------|----------------|----------------||
Eb|----------------|----------------|----------------|----------------||

eb|----------------|----------------|----------------|----------------||
Bb|----------------|--12----12------|--13----12------|--13-----12-----||
Gb|--4--4s5-4------|--14b16-14b16---|--15b17-14b16---|--15b27--14b16--||
Db|------------5s7-|----------------|----------------|----------------||
Ab|----------------|----------------|----------------|----------------||
Eb|----------------|----------------|----------------|----------------||

eb|----------------|----------------|----------------|----------------||
Bb|--13-----12-----|--13-----15-----|--13-----12-----|--12-----12-----||
Gb|--15b17--14b16--|--15b17--17b19--|--15b17--14b16--|--14b16--14b16--||
Db|----------------|----------------|----------------|----------------||
Ab|----------------|----------------|----------------|----------------||
Eb|----------------|----------------|----------------|----------------||

eb|----------------|----------------|----------------|-----------15b17r15b17----||
Bb|--13--15b17--17-|-17--17--17~----|-r15p13---------|-----13-------------------||
Gb|----------------|----------------|---------14-14--|--14----14----------------||
Db|----------------|----------------|----------------|--------------------------||
Ab|----------------|----------------|----------------|--------------------------||
Eb|----------------|----------------|----------------|--------------------------||
                                                                  

eb|--5-55-5---------|---3~------|--1--11-1------|----------------||
Bb|--5-55-5---------|---3~------|--1--11-1------|----------------||
Gb|--5-55-5---------|---4~------|--2--22-2------|--4--5--4-------||
Db|--7-77-7---------|---5~------|--3--33-3------|-----------5----||
Ab|--7-77-7---------|---5~------|--3--33-3------|----------------||
Eb|--5-55-5---------|---3~------|--1--11-1------|----------------||
P.M.   ..                             ..

eb|--5-55-5---------|---3~------|--1~-----------|----------------||
Bb|--5-55-5---------|---3~------|--1~-----------|----------------||
Gb|--5-55-5---------|---4~------|--2~-----------|----------------||
Db|--7-77-7---------|---5~------|--3~-----------|----------------||
Ab|--7-77-7---------|---5~------|--3~-----------|----------------||
Eb|--5-55-5---------|---3~------|--1~-----------|----------------||
P.M.   ..                             


[Chorus]

eb|--5-55-5---------|---3~------|--1--11-1------|----------------||
Bb|--5-55-5---------|---3~------|--1--11-1------|----------------||
Gb|--5-55-5---------|---4~------|--2--22-2------|--4--5--4-------||
Db|--7-77-7---------|---5~------|--3--33-3------|-----------5----||
Ab|--7-77-7---------|---5~------|--3--33-3------|----------------||
Eb|--5-55-5---------|---3~------|--1--11-1------|----------------||
P.M.   ..                             ..

eb|--5-55-5---------|---3~------|--1~-----------|--1-----1-------||
Bb|--5-55-5---------|---3~------|--1~-----------|----1-----1-----||
Gb|--5-55-5---------|---4~------|--2~-----------|------2-----2---||
Db|--7-77-7---------|---5~------|--3~-----------|----------------||
Ab|--7-77-7---------|---5~------|--3~-----------|----------------||
Eb|--5-55-5---------|---3~------|--1~-----------|----------------||
P.M.   ..                             

eb|--5-55-5---------|---3~------|--1--11-1------|----------------||
Bb|--5-55-5---------|---3~------|--1--11-1------|----------------||
Gb|--5-55-5---------|---4~------|--2--22-2------|--4--5--4-------||
Db|--7-77-7---------|---5~------|--3--33-3------|-----------5----||
Ab|--7-77-7---------|---5~------|--3--33-3------|----------------||
Eb|--5-55-5---------|---3~------|--1--11-1------|----------------||
P.M.   ..                             ..

eb|--5-55-5---------|---3~------|--1~-----------|--1-----1-------||
Bb|--5-55-5---------|---3~------|--1~-----------|----1-----1-----||
Gb|--5-55-5---------|---4~------|--2~-----------|------2-----2---||
Db|--7-77-7---------|---5~------|--3~-----------|----------------||
Ab|--7-77-7---------|---5~------|--3~-----------|----------------||
Eb|--5-55-5---------|---3~------|--1~-----------|----------------||
P.M.   ..                             

eb|--5-55-5---------|---3~------|--1--11-1------|----------------||
Bb|--5-55-5---------|---3~------|--1--11-1------|----------------||
Gb|--5-55-5---------|---4~------|--2--22-2------|--4--5--4-------||
Db|--7-77-7---------|---5~------|--3--33-3------|-----------5----||
Ab|--7-77-7---------|---5~------|--3--33-3------|----------------||
Eb|--5-55-5---------|---3~------|--1--11-1------|----------------||
P.M.   ..                             ..

eb|--5-55-5---------|---3~------|--1~-----------|----------------||
Bb|--5-55-5---------|---3~------|--1~-----------|----------------||
Gb|--5-55-5---------|---4~------|--2~-----------|----------------||
Db|--7-77-7---------|---5~------|--3~-----------|----------------||
Ab|--7-77-7---------|---5~------|--3~-----------|----------------||
Eb|--5-55-5---------|---3~------|--1~-----------|----------------||
P.M.   ..                             


[Outro]

Clean
eb|-----------------|-----------------|------------------|-------------------||
Bb|----0h1----------|-----0h3---------|---1-0h1----------|-----0-------------||
Gb|--------2--------|---------0-------|---------2--------|-----4-5-4---------||
Db|-----------------|-----------------|------------------|------------5/7----||
Ab|-0---------------|--0--------------|---3--------------|---0---------------||
Eb|-----------------|-----------------|------------------|-------------------||

eb|-----------------|-----------------|---1~-------------|----------------7--||
Bb|----0h1----------|-----0h3---------|---1~-------------|------1p0h1---0----||
Gb|--------2--------|---------0-------|---2~-------------|----2-------2------||
Db|-----------------|-----------------|---3~-------------|-------------------||
Ab|-0---------------|--0--------------|---3~-------------|--0----------------||
Eb|-----------------|-----------------|------------------|-------------------||



************************************

| x  Dead note
| h  Hammer-on
| p  Pull-off
| r  Release
| b  Bend
| /  Slide up
| ~  Vibrato
| s  Slide

************************************

            
            
Suggest correction
Creating personal tab
Creating personal tab
You can edit any tab online and save it as your Personal.

You can edit, replace or remove any tab part or add personal notes – all changes will be seen only by you.

Personal tabs can be accessed anytime from any device, even offline.
Learn more »
Give kudos to tab author, rate the tab!
1 2 3 4 5
comments
print report bad tab
guest
You may want to rate the tab now too:
select rating
Wanna post a correction for this tab? Suggest correction