Oops, an error
Loading. Please wait.

Kokken Tor Ukulele Chords

version 2
version 2

Whole song

  • Norwegian Pop/Bluesrock - Ukulele tab for the riff... Show more
7 views 1 this week
no commentswrite comment
1 2 3 4 5
3 more votes to show rating
add to favorites
launch autoscroll
font size
0
reset
transpose
0
reset
display chords
guitar tuner
Autoscroll
slow
fast
+/-
esc
set tempo
stop
Help us to improve Ultimate-Guitar.com Take our survey!
×
Author
About this tab version
Norwegian Pop/Bluesrock - Ukulele tab for the riff, and chords over all the lyrics. Was this info helpful? Yes No
De Lillos - Kokken Tor
Ukulele Tab by Tor Erik Grønås
tor.erik.g182@gmail.com

Most sections ends with a riff in F#m:
[Main Riff]

A|-0--0----------0-------------|
E|-2--2--0h2-0-2---2--0h2-0----|
C|-1--1---------------------2--|
G|-2--2------------------------|



[Intro]

   F#m                            F#m                       
A|-0--0----------0----------------0--0----------0~------------|
E|-2--2--0h2-0-2---2--0h2-0-------2--2--0h2-0-2-2~------------|
C|-1--1---------------------2-----1--1----------1~------------|
G|-2--2---------------------------2--2------------------------|



   F#m                            F#m                       D (start of verse)
A|-0--0----------0----------------0--0----------0-----------0-|
E|-2--2--0h2-0-2---2--0h2-0-------2--2--0h2-0-2---0h2-0-----2-|
C|-1--1---------------------2-----1--1------------------1-0-2-|
G|-2--2---------------------------2--2----------------------2-|


[Verse]

D             Bm
Dette hendte meg en gang
D                    Bm
Jeg var på en slags resturant
A               D                               F#m   
Sammen med min kjæreste og hennes far, han var sjømann  

D                  Bm
Fra samme båt kom kokken Tor
D                 Bm
Og satte seg ned ved vårt bord
A                       D               F#m   
Og denne historien den handler mest om ham

D                          Bm
Da far og datter begynte å snakke privat
D                    Bm       
Ble jeg sittende som Tors kamerat
A                          D                F#m 
Og det virket som han ikke tålte å være på land
D                        Bm
For plutslig viste han neven sin
D                       Bm
Og sa "Du trenger mere disiplin"
A                D                  F#m  
Og jeg mislikte sterkt hans engasjement


[Chorus]

A                     Bm             C#m   D
Og Tor sa:"Hei du jeg elsker deg din jævel.
A              E      F#m   D     
Du har så mye sensualitet
A                  Bm          C#m  D     
Men snart skal du få deg en på trynet
A                        Bm              F#m        
For stygge gutter er det verste som jeg vet"

   F#m                            F#m                       
A|-0--0----------0----------------0--0----------0~------------|
E|-2--2--0h2-0-2---2--0h2-0-------2--2--0h2-0-2-2~------------|
C|-1--1---------------------2-----1--1----------1~------------|
G|-2--2---------------------------2--2------------------------|



   F#m                            F#m                       D (start of verse 2)
A|-0--0----------0----------------0--0----------0-----------0-|
E|-2--2--0h2-0-2---2--0h2-0-------2--2--0h2-0-2---0h2-0-----2-|
C|-1--1---------------------2-----1--1------------------1-0-2-|
G|-2--2---------------------------2--2----------------------2-|


[Verse]

D             Bm
Tor sa at han elsket meg
D                Bm
Og Tor sa at han hatet meg
A                      D               F#m  
Og jeg prøvde å slippe unna øynene hans
D                         Bm
Min kjæreste hadde nok et dårlig instinkt
D                      Bm
Jeg prøvde å gi henne hint og vink
A                        D                     F#m   
Men hun og faren snakket stadig vekk uten stans


[Chorus]

A                     Bm             C#m   D
Og Tor sa:"Hei du jeg elsker deg din jævel.
A              E      F#m   D     
Du har så mye sensualitet
A                  Bm          C#m  D     
Men snart skal du få deg en på trynet
A                        Bm              F#m        
For stygge gutter er det verste som jeg vet"

   F#m                            F#m                       
A|-0--0----------0----------------0--0----------0~------------|
E|-2--2--0h2-0-2---2--0h2-0-------2--2--0h2-0-2-2~------------|
C|-1--1---------------------2-----1--1----------1~------------|
G|-2--2---------------------------2--2------------------------|


   F#m                            F#m                       
A|-0--0----------0----------------0--0----------0~------------|
E|-2--2--0h2-0-2---2--0h2-0-------2--2--0h2-0-2-2~------------|
C|-1--1---------------------2-----1--1----------1~------------|
G|-2--2---------------------------2--2------------------------|

[Solo]


[Verse]
D                        Bm            
Men endelig snudde faren seg og sa
D                     Bm                    
"Hvordan går det med dere 'a?
A                    D                        F#m        
Tor, du må'kke plage guttungen med preiket ditt"
D                   Bm                        
Men kokken sa at vi hygget oss
D                  Bm                  
Men nå måtte han kaste loss
A                          D                 F#  
Og takk for praten det var jaggu hyggelig gitt


[Chorus]

A                     Bm             C#m   D
Og Tor sa:"Hei du jeg syns du er en jævel.
A              E      F#m   D     
Du hakke mye sensualitet
A                  Bm        C#m  D     
Du burde faen hatt deg en på trynet
A                        Bm              F#m        
Men det er vel allerede alt for sent"

[Solo]

Suggest correction
Give kudos to tab author, rate the tab!
1 2 3 4 5
comments
print report bad tab
guest
You may want to rate the tab now too:
select rating
Wanna post a correction for this tab? Suggest correction