Oops, an error
Loading. Please wait.

Rett Og Slett Livet Tab

10 views 1 this week
no commentswrite comment
1 2 3 4 5
3 more votes to show rating
add to favorites
launch autoscroll
font size
0
reset
how to read this tab
guitar tuner
Autoscroll
slow
fast
+/-
esc
set tempo
stop
Help us to improve Ultimate-Guitar.com Take our survey!
×
Author
Difficulty
novice
[Intro]

e|----------------|----------------|----------------|----------------|
B|----------------|----------------|----------------|----------------|
G|----------------|----------------|----------------|----------------|
D|4-4---4-4-------|4-4---4-4-------|4-4---4-4-------|4-4---4-4-------|
A|----4-----2-----|----4-----5-----|----4-----2-----|----4-----5-----|
E|----------------|----------------|----------------|----------------|


e|----------------|----------------|----------------|----------------|
B|----------------|----------------|----------------|----------------|
G|----------------|----------------|----------------|----------------|
D|4-4---4-4-------|4-4---4-4-------|4-4---4-4-------|4-4---4-4-------|
A|----4-----2-----|----4-----5-----|----4-----2-----|----4-----5-----|
E|----------------|----------------|----------------|----------------|


e|----------------|----------------|----------------|----------------|
B|----------------|----------------|----------------|----------------|
G|----------------|----------------|----------------|----------------|
D|4-4---4-4-------|4-4---4-4-------|4-4---4-4-------|4-4---4-4-------|
A|----4-----2-----|----4-----5-----|----4-----2-----|----4-----5-----|
E|----------------|----------------|----------------|----------------|


e|----------------|----------------|----------------|----------------|
B|----------------|----------------|----------------|----------------|
G|----------------|----------------|----------------|----------------|
D|4-4---4-4-------|4-4---4-4-------|4-4---4-4-------|4-4---4-4-------|
A|----4-----2-----|----4-----5-----|----4-----2-----|----4-----5-----|
E|----------------|----------------|----------------|----------------|
Suggest correction
Give kudos to tab author, rate the tab!
1 2 3 4 5
comments
print report bad tab
guest
You may want to rate the tab now too:
select rating
Wanna post a correction for this tab? Suggest correction