Oops, an error
Loading. Please wait.

Uten Deg Tab

860 views 1 this week
no commentswrite comment
1 2 3 4 5
please rate
add to favorites
launch autoscroll
font size
0
reset
how to read this tab
guitar tuner
Tab Pro tools
  • play this tab
  • loop segment
  • change instrument
  • show fretboard
  • metronome
×
Best way to learn
"Uten Deg"
Autoscroll
slow
fast
+/-
esc
set tempo
stop
DeLillos - Uten deg
===================

Band : De Lillos
Album: Sent og tidlig
Music: Lars Fredrik Beckstrøm
Text : Lars Fredrik Beckstrøm
Tab  : Thomas Teigland, thomas_teigland@yahoo.com

Another DeLillos tab :) Enjoy!
--- 
Guitar1 plays the chords.
Guitar2 plays as tabbed.

Intro:
   Bm    G      D   A
e---------------------2---------------------------
B--2h3-2----------3-5---5-3---2h3----------3-5----
G--2-----4---4--2-------------2---4---4--2--------
D----------5----0-------------------5----0--------
A-------------------------------------------------
E-------------------------------------------------

Verse:

Bm - G - D - A (x4)

Chorus:

G - D - A - G (x2)
D - A - G (x2)

Bridge:

   Bm   Bm/A     Bm/G#  Bm/G   D   A   G   D
e--2------2------x------x------2---0---3---2------
B--3------3------3------3------3---2---3---3------
G--4------4------4------4------2---2---0---2------
D--4------4------4------4------0---2---0---0------
A--2------0------x------x----------0---2----------
E----------------4------3--------------3----------

Solo: 

Guitar1 plays verse.
Guitar2 distorted guitar.

e-------------------------------------------------
B-------------------------------------------------
G------------------------9-9-9^11^^11^^11^^11^^9--
D--/4--4---7-4--/9-9-9-9--------------------------
A--/2---------------------------------------------
E-------------------------------------------------

e-------------------------------------------------
B--/15-12--10h12-10-------------------------------
G------------------------9^11^^^9-----------------
D-------------------------------------------------
A-------------------------------------------------
E-------------------------------------------------

e-------------------------------------------------
B-------------------------------------------------
G--9^11^9-9p7-----9^11^9-9p7--4-------------------
D-------------------------------------------------
A-------------------------------------------------
E-------------------------------------------------

Outtro:
Guitar1 repeats the following:
   Bm     Bm/A   Bm/G#  Bm/G
e-------------------------------------------------
B-----3------3------3------3----------------------
G----4------4------4------4-----------------------
D---4------4------4------4------------------------
A--2------0---------------------------------------
E----------------4------3-------------------------

Guitar2 plays the following:

e-------------------------------------------------
B-------------------------------------------------
G-----------------7-7/11~~~---9/11/9/14~/16~~~----
D--9~~~9/11/12~~----------------------------------
A-------------------------------------------------
E-------------------------------------------------

e--7/9/7/14~~~--7/9/7/14~~~--7^9^7----7^9^7-/14~~~
B----------------------------------7--------------
G-------------------------------------------------
D-------------------------------------------------
A-------------------------------------------------
E-------------------------------------------------

The order of the song is like follows:

Intro
Verse
Chorus
Verse
Chorus
Bridge
Verse (only x2, not x4 as normal)
Solo
Verse
Chorus
Outtro

Thats it, enjoy!

- EOF -
comments
We did not receive enough feedback on this tab! Please rate:
print report bad tab
1 2 3 4 5
I want to post or [tab]
guest
You may want to rate the tab now too:
select rating
Please do not post tabs as comments. Select "correction" instead!