Oops, an error
Loading. Please wait.

Come Like You Promise Bass Tab

1,138 views 1 this week
1 commentread comment
1 2 3 4 5
x 3
add to favorites
launch autoscroll
font size
0
reset
guitar tuner
Autoscroll
slow
fast
+/-
esc
set tempo
stop
Help us to improve Ultimate-Guitar.com Take our survey!
×
This is a really great bass line when its played fast
and it just repeats itself 4 most of the song. 
                  
g|----------------------------------------------|
d|---------4-5-4-0------------4-5-4-0-----------|
a|-----------------3-2----------------3-2-------|
e|--3-3-----------------3-3---------------3-3---|

there is one change but its played at the same speed.

g|-----------------------------------------------|
d|---------5-4-0------------5-4-0----------------|
a|-------3-------3-2-------3------3-2------------|
e|--3-----------------3---------------3----------|

after that its just back to the first one. any corrections or anything send to
damcc3@hotmail.com
Suggest correction
Give kudos to tab author, rate the tab!
1 2 3 4 5
comments
print report bad tab
1 comment total.
+1 reply
hoss9009 0 Jun 23, 2003 12:00 AM

g|----------------------------------------------|
d|---------3-5-3-0------------3-5-3-0-----------|
a|-----------------3-2----------------3-2-------|
e|--3-3-----------------3-3---------------3-3---|

there is one change but its played at the same speed.

g|-----------------------------------------------|
d|---------5-3-0------------5-3-0----------------|
a|-------3-------3-2-------3------3-2------------|
e|--3-----------------3---------------3----------|

guest
You may want to rate the tab now too:
select rating
Wanna post a correction for this tab? Suggest correction