Oops, an error
Loading. Please wait.

God Is Smiling Bass Tab

1,496 views 1 this week
no commentswrite comment
1 2 3 4 5
1 last vote to show rating
add to favorites
launch autoscroll
font size
0
reset
guitar tuner
Autoscroll
slow
fast
+/-
esc
set tempo
stop
Help us to improve Ultimate-Guitar.com Take our survey!
×
Difficulty
novice
God is Smiling Bass Tab

Intro
e|--------------------------------------------------|
B|--------------------------------------------------|
G|--------------------------------------------------|
D|--------------------------------------------------|
A|--0-2-2-0-2-2-0-2-2-0-2-2-------------------------|
E|--------------------------0-4-4-0-4-4-0-4-4-0-4-4-|

Come in after 8 bars of Guitar

Verse

e|--------------------------------------------------|
B|--------------------------------------------------|
G|--------------------------------------------------|
D|--------------------------------------------------|
A|--0-2-2-0-2-2-0-2-2-0-2-2-------------------------|
E|--------------------------0-4-4-0-4-4-0-4-4-0-4-4-|

Pre-Chorus

e|--------------------------------------------------|
B|--------------------------------------------------|
G|--------------------------------------------------|
D|--------------------------------------------------|
A|--5-5-5-5-5-5-5-5-7-7-7-7-7-7-7-7-9-9-9-9-9-9-9-9-|
E|--------------------------------------------------|

e|--------------------------------------------------|
B|--------------------------------------------------|
G|--------------------------------------------------|
D|--------------------------------------------------|
A|-7-7-7-7-7-7-7-7-5-5-5-5-5-5-5-5------------------|
E|---------------------------------7-7-7-7-7-7-7-7--|

e|--------------------------------------------------|
B|--------------------------------------------------|
G|--------------------------------------------------|
D|--------------------------------------------------|
A|-9-9-9-9-9-9-9-9-7-7-7-7-7-7-7-7------------------|
E|--------------------------------------------------|

e|---------------------------------------------------|
B|---------------------------------------------------|
G|---------------------------------------------------|
D|---------------------------------------------------|
A|-0-0-0-0-0-0-0-0-2-2-2-2-2-2-2-2-------------------|
E|---------------------------------2-2-2-2-2-2-2-2-2-|

e|--------------------------------------------------|
B|--------------------------------------------------|
G|--------------------------------------------------|
D|--------------------------------------------------|
A|---------------0-0-0-0-0-0-0-0-2-2-2-2-2-2-2-2----|
E|-2-2-2-2-2-2-2--------------------------------2-2-|

e|--------------------------------------------------|
B|--------------------------------------------------|
G|--------------------------------------------------|
D|--------------------------------------------------|
A|--------------------------------------------------|
E|2-2-2-2-2-2-2-2-2-2-2-2-2-2-2-2-2-2-2-2-2-2-4-4-4-|

e|--------------------------------------------------|
B|--------------------------------------------------|
G|--------------------------------------------------|
D|--------------------------------------------------|
A|--------------------------------------------------|
E|4-4-4-4-4-5-5-5-5-5-5-5-5-7-7-7-7-7-7-7-7---------|

Order

Intro
Verse 1
Pre Chorus
Chorus
Intro
Verse 2
Pre Chorus
Chorus
Guitar Solo (Verse)
Bridge (Verse)
Chorus
Suggest correction
Give kudos to tab author, rate the tab!
1 2 3 4 5
comments
print report bad tab
guest
You may want to rate the tab now too:
select rating
Wanna post a correction for this tab? Suggest correction