Oops, an error
Loading. Please wait.

Hang On To You Tab

1,959 views 1 this week
1 commentread comment
1 2 3 4 5
excellent!
x 3
add to favorites
launch autoscroll
font size
0
reset
how to read this tab
guitar tuner
Tab Pro tools
  • play this tab
  • loop segment
  • change instrument
  • show fretboard
  • metronome
Autoscroll
slow
fast
+/-
esc
set tempo
stop
Contributor
Hang on to You
Delirious?
CD: Glo
c2000 Curious? Music
Tabbed by Steve Cruickshank
(postlambjam@hotmail.com)


I put the chords here first, but see the tablature at the bottom
for the various riffs and other parts played throughout the song.


Verse:
(D  Asus  C2  G) x2

Prechorus:
Bm  D  G  F#m  A

Chorus:
(D  Am  Em  Gmaj7) x2

[verse]

[prechorus]

[chorus]


Bridge: (acoustic only)

(Bm  A/C#  D  D/F#  G) x3
 Em  A  Asus  A7

[solo]

[chorus]

Prechorus tab: (palm-muted)
e-----------------------------------------------------------------------|
B-----------------------------------------------------------------------|
G---4-4-4-4-4-4-4-4/---7-7-7-7-7-7-7-7\---------------------------------|
D---4-4-4-4-4-4-4-4/---7-7-7-7-7-7-7-7\---5-5-5-5-5-5-5-5\4-4-4-4/7-----|
A---2-2-2-2-2-2-2-2/---5-5-5-5-5-5-5-5\---5-5-5-5-5-5-5-5\4-4-4-4/7-----|
E-----------------------------------------3-3-3-3-3-3-3-3\2-2-2-2/5-----|
    Bm                 D                  G               F#m     A


Chorus tab: (octaves and such)
e-----------------------------------------------------------------------|
B-----------------------------------------------------------------------|
G---11---11/12\11--9--7--5----11/12\11--9--7--4----11/12\11--9--7--11---|
D-----------------------------------------------------------------------|
A----9----9/10\9---7--5--3-----9/10\9---7--5--2-----9/10\9---7--5---9---|
E-----------------------------------------------------------------------|
     D                   Am                   Em                   Gmaj7

Bridge tab: (acoustic, finger-style)
e-----------------------------------------------------------------------|
B---3------5------7-------------0------3------5------7------10-------12-|
G-----4------6------7----7---------------4------6------7-------11-------|
D--------------------------7----0---------------------------------------|
A---2------4------5------9-------------2------4------5------9--------10-|
E-----------------------------------------------------------------------|
    Bm     A/C#   D      D/F#   G      Bm     A/C#   D      D/F#     G

e-----------------------------------------------------------------------|
B---3------5------7-------------0---------------------------------------|
G-----4------6------7----7----------------------------------------------|
D--------------------------7----0---------------------------------------|
A---2------4------5------9----------------------------------------------|
E-----------------------------------------------------------------------|
    Bm     A/C#   D      D/F#   G

e-----------------------------------------------------------------------|
B--------8-------8--7--5--3--3/5----------------------------------------|
G-----------------------------------------------------------------------|
D-----9----9-----9--7--5--4--4/5----------------------------------------|
A-----------------------------------------------------------------------|
E---0-------------------------------------------------------------------|
    Em

e-----------------------------------------------------------------------|
B---------2-------3------5---5---5---5---5---5---5----------------------|
G-------2---------------------------------------------------------------|
D-----2------2/4-----4/5---5---5---5---5---5---5------------------------|
A---0-------------------------------------------------------------------|
E-----------------------------------------------------------------------|
    A        Asus     A7

Solo: (rhythm guitar/bass play D A Em G x2)
e-----------------------------------------------------------------------|
B----------------------------------------------------------17-19-17~~~--|
G--------------------11b12r11--11-12~~~-----------16-18-19--------------|
D---12~~~---12-12-14------------------------16-17-----------------------|
A-----------------------------------------------------------------------|
E-----------------------------------------------------------------------|
    D                                       A

e-----------------------------------------------------------------------|
B-----------------------------------------------------------------------|
G-----------14~~~~~(let ring)-------------------------------------------|
D---16--17--------------------------------------------------------------|
A-----------------------------------------------------------------------|
E-----------------------------------------------------------------------|
    Em                             G

e----------------------------------------------------16b17---------------|
B---10-12---/15-15-15-15-15\---/15-15-15-15-15\--------------------------|
G-----------/14-14-14-14-14\---/14-14-14-14-14\--------------------------|
D------------------------------------------------------------x-----------|
A------------------------------------------------------------------------|
E------------------------------------------------------------------------|
comments
We did not receive enough feedback on this tab! Please rate:
print report bad tab
1 2 3 4 5
1 comment total.
0 reply
jimbopo wrote on March 12 2008, 11:53 pm

Just for comment's sake. I've never heard this song so when I play this tab it will be my first time hearing it! :0 It looks pretty nicely done... 5 stars ;)

I want to post or [tab]
guest
You may want to rate the tab now too:
select rating
Please do not post tabs as comments. Select "correction" instead!