Oops, an error
Loading. Please wait.

Happy Song Solo 2 solo tab

64 views 1 this week
4 commentsread comments
1 2 3 4 5
x 8
add to favorites
×
Save as Personal and add changes to this tab that will be seen only by you. Learn more ›
×
You can save this tab as Personal to edit and correct it or add notes. All changes will be seen only by you. Learn more »
launch autoscroll
font size
0
reset
how to read this tab
guitar tuner
edit
Autoscroll
slow
fast
+/-
esc
set tempo
stop
Author
Difficulty
SOLO #1 https://tabs.ultimate-guitar.com/d/delirious/happy_song_solo_ver2_tab.htm

SOLO #2
[Solo 2]

e|------------------------------------------------------------15--------15-----|
B|-12-12\13-12---10-----10----10-------15-17-15-----12-----15---15---15---15---|
G|-------------12---12-----12----12/11-----------14-----12--------12--------12-|
D|-----------------------------------------------------------------------------|
A|-----------------------------------------------------------------------------|
E|-----------------------------------------------------------------------------|

e|-19-17-15-17-12-15---------------------------------------------|
B|-------------------15-13-12/10-12------------------10-12/10----|
G|----------------------------------12-7\9-12-7\9-12----------12-|
D|---------------------------------------------------------------|
A|---------------------------------------------------------------|
E|---------------------------------------------------------------|



************************************
| /   slide up
| \   slide down
************************************
Suggest correction
Creating personal tab
Creating personal tab
You can edit any tab online and save it as your Personal.

You can edit, replace or remove any tab part or add personal notes – all changes will be seen only by you.

Personal tabs can be accessed anytime from any device, even offline.
Learn more »
comments
print report bad tab
4 comments total. Showing first comments.
0 reply
RSMB 10 Mar 30, 2016 02:58 PM

Soooo EPIC!

0 reply
johndoe6463 10 May 27, 2016 07:28 AM

Ive been searching forever for this! could you get the electric in the middle though?

0 reply
fredfraz6463 10 May 27, 2016 07:37 AM

I give you lot of love man! nice job God bless!

guest
You may want to rate the tab now too:
select rating
Wanna post a correction for this tab? Suggest correction