Oops, an error
Loading. Please wait.

Happy Song Tab

2,779 views 1 this week
8 commentsread comments
1 2 3 4 5
x 4
add to favorites
launch autoscroll
font size
0
reset
how to read this tab
guitar tuner
×
Best way to learn
"Happy Song"
Autoscroll
slow
fast
+/-
esc
set tempo
stop
Author
Difficulty
intermediate
Artist: Delirious
Album: Access Live Worship
Song: Happy Song

This is for the 1st solo of the song. I'm working on the 2nd solo


[Solo]

e|---------------------------------------------6b7==7-10-6b7-6h7p6-5-------|
B|-------------------------------------------------------------------8-5-0-|
G|-0-0-0-2-0-2-0-5-5--0-0-0-2-0-2-0-4-4--0-0-0-----------------------------|
D|-------------------------------------------------------------------------|
A|-------------------------------------------------------------------------|
E|-------------------------------------------------------------------------|


e|------------------|
B|-3-5-3------------|
G|-------2b3b2-0----|
D|------------------|
A|------------------|
E|------------------|



************************************

| h  Hammer-on
| p  Pull-off
| b  Bend
| =  let ring

************************************
Suggest correction
comments
print report bad tab
8 comments total. Showing first comments.
0 reply
james_nthegym 205 Oct 07, 2014 08:37 AM

Please update

0 reply
james_nthegym 205 Nov 03, 2014 06:56 AM

How on earth do you think this sounds like the happy song solo!! Send a video of what your tab sounds like!

0 reply
james_nthegym 205 Nov 03, 2014 07:01 AM

Clearly wrong. i t w a s n t g o o d a t a l l. I dont t h i nk he did a good job

guest
You may want to rate the tab now too:
select rating
Wanna post a correction for this tab? Suggest correction