Oops, an error
Loading. Please wait.

Here I Am Send Me Tab

version 1
version 1

Whole song

5,014 views 1 this week
2 commentsread comments
1 2 3 4 5
2 more votes to show rating
add to favorites
launch autoscroll
font size
0
reset
how to read this tab
guitar tuner
Autoscroll
slow
fast
+/-
esc
set tempo
stop
Help us to improve Ultimate-Guitar.com Take our survey!
×
Author
-------------------------------------------------------------------------------
                             Here i am send me - Delirious?
-------------------------------------------------------------------------------


Tuning:E,A,D,G,B,E

LEAD GUITAR: ( play this throughout song)-

I can't work it out, it's either this:

e|-10-7-7-7-7-7-7-7---------------|
B|--7-7-7-7-7-7-7-7---------------|
G|--------------------------------|
D|--------------------------------|
A|--------------------------------|
E|--------------------------------|

or this:

e|-10-7-7-7-7-7-7-7----------------|
B|-10-7-7-7-7-7-7-7----------------|
G|---------------------------------|
D|---------------------------------|
A|---------------------------------|
E|---------------------------------|

I think it's the second one thats right but i'm not sure. they both sound right tho

RHYTHM GUITAR (GUITAR 2)- (this is played most of the time throughout the song)

e|-7---7-7-7-7-7-7-7-----------|
B|-10--7-7-7-7-7-7-7-----------|
G|-10--7-7-7-7-7-7-7-----------|
D|-10--7-7-7-7-7-7-7-----------|
A|-----------------------------|
E|-----------------------------|

I can't work out the rhythm guitar for the bridge, but lead guitar doesn't play.

I can't work out the solo either but it's played by guitar 2 (rhythm guitar)

After the bridge lead guitar does same as beggining and rhythm guitar plays chords but i don't
know which chords.


===============================================================================
Suggest correction
Give kudos to tab author, rate the tab!
1 2 3 4 5
comments
print report bad tab
2 comments total.
0 reply
flyinRiffs 16 Aug 06, 2007 11:09 AM

hey your this tab is totally off man.. Do work on your hearing dude..
the riff stu.G play in this song is jus G|---10-7-7-7-7-7---

0 reply
andrej879 31 Mar 29, 2012 03:34 PM

hey, I've got this tab, maybe it's correctly.

INTRO
Lead Guitar
E|--------------------------------|
B|11-8-8-8-8-8-8-8---------|
G|10-7-7-7-7-7-7-7---------|
D|--------------------------------|
A|--------------------------------|
E|--------------------------------|

solo
E|-----------------------------------------|
B|-----------------------------------------|
G|12-12-12-12-10-12-15--12~---|
D|-----------------------------------------|
A|-----------------------------------------|
E|-----------------------------------------|

E|--------------------------------------------------------|
B|--------------------------------------------------------|
G|10-12-15-15-10-12---10-12-15-15-10--10-10~|
D|--------------------------------------------------------|
A|--------------------------------------------------------|
E|--------------------------------------------------------|

E|----------------------------------13--------------------|
B|-----13-13----------------------------------------------|
G|12----------10-12---10-12-----10-12^---10-12-15|
D|--------------------------------------------------------|
A|--------------------------------------------------------|
E|--------------------------------------------------------|

E|---------------------------------------------------------|
B|15---15--15--15--15---15--15--15---------------|
G|18^-18^-18^-18^-18^-18^-18^-18^--------------|
D|---------------------------------------------------------|
A|---------------------------------------------------------|
E|---------------------------------------------------------|

guest
You may want to rate the tab now too:
select rating
Wanna post a correction for this tab? Suggest correction