Oops, an error
Loading. Please wait.

Inside Outside Bass Tab

version 1
version 1

Whole song

Interactive

2,018 views 1 this week
no commentswrite comment
1 2 3 4 5
2 more votes to show rating
add to favorites
launch autoscroll
font size
0
reset
guitar tuner
Autoscroll
slow
fast
+/-
esc
set tempo
stop
Help us to improve Ultimate-Guitar.com Take our survey!
×
Author
Difficulty
intermediate
Roadmap:
Verse 3x
Pre-Chorus 1x
Chorus 2x
Verse 3x
Pre-Chorus 1x
Chorus 3x
Bridge 3x
Bass Cut Out for 4 measures
Pre-Chorus 1x
Chorus 3x
Ending 3x
Resolve on Bb

Verse
Progression = Bb C# F# G#
Rhythm = Eigth Notes played 1 and, and 3 and, and
Bass Enters on 9th Measure

G|------------------------------------------------------------------|
D|------------------------------------------------------------------|
A|-1-1--1-1-1--1----4-4--4-4-4--4-----------------------------------|
E|---------------------------------2-2--2-2-2---2----4-4--4-4-4--4--|

Pre-Chorus
Progression = F# G# Bb C#-C-Bb (Walk-down 1st time)
Progression = F# G# Bb Bb-C-C# (Walk-up 2nd time into chorus)
Rhythm = Same as verses

G|-----------------------------------------------------------------|
D|-----------------------------------------------------------------|
A|----------------------------------1-1--1-1-1--1-1-1--1--4--3--1--|
E|-2-2--2-2-2--2----4-4--4-4-4--4----------------------------------|

G|-----------------------------------------------------------------|
D|-----------------------------------------------------------------|
A|----------------------------------1-1--1-1-1--1-1-1--1--3--3--3--|
E|-2-2--2-2-2--2----4-4--4-4-4--4----------------------------------|

Chorus
Progression = C# D# F#
Rhythm = Driving Eigth Notes
G|-----------------------------------------------------------------|
D|-----------------------------------------------------------------|
A|-4-4-4-4-4-4-4-4-6-6-6-6-6-6-6-6-9-9-9-9-9-9-9-9-9-9-9-9-9-9-9-9-|
E|-----------------------------------------------------------------|

Bridge
Progression = C# D# F#
Rhythm = Driving Eigth Notes
G|-----------------------------------------------------------------|
D|-----------------------------------------------------------------|
A|----------------------------------1-1--1-1-1--1-1-1--1--4--3--1--|
E|-2-2--2-2-2--2----4-4--4-4-4--4----------------------------------|

Ending
Progression = C# G# F#
Rhythm = Eigth Notes
G|-----------------------------------------------------------------|
D|-----------------------------------------------------------------|
A|-4-4--4-4-4--4---------------------------------------------------|
E|-----------------4-4--4-4-4--4----2-2--2-2-2--2----2-2--2-2-2--2-|
Suggest correction
Give kudos to tab author, rate the tab!
1 2 3 4 5
comments
print report bad tab
guest
You may want to rate the tab now too:
select rating
Wanna post a correction for this tab? Suggest correction